ISO-10303-21;
HEADER;
FILE_DESCRIPTION(
  ('This file contains a STEP AP42 implementation'
    ,'as created by ZW3D STEP Interface translator.')
  ,'2;1'
  );
FILE_NAME(
  'DUV2.5-104-XX-00N.stp'
  ,'2410 8.11 444',
  (''),
  ('ZWCAD Software Co.'),
  'Version 1.0',
  'ZW3D to STEP translator',
  ''
  );
FILE_SCHEMA(('CONFIG_CONTROL_DESIGN'));
ENDSEC;

DATA;

/**File Base Unit**/
#1 = (LENGTH_UNIT()NAMED_UNIT(*)SI_UNIT(.MILLI.,.METRE.));
#2 = (NAMED_UNIT(*)PLANE_ANGLE_UNIT()SI_UNIT($,.RADIAN.));
#3 = (NAMED_UNIT(*)SI_UNIT($,.STERADIAN.)SOLID_ANGLE_UNIT());
#4 = UNCERTAINTY_MEASURE_WITH_UNIT(LENGTH_MEASURE(1.E-05),#1,'DISTANCE_ACCURACY_VALUE','Maximum Tolerance applied to model');
#5 = (GEOMETRIC_REPRESENTATION_CONTEXT(3)GLOBAL_UNCERTAINTY_ASSIGNED_CONTEXT((#4))GLOBAL_UNIT_ASSIGNED_CONTEXT((#1,#2,#3))REPRESENTATION_CONTEXT('STEP 203','TOP_LEVEL_ASSEMBLY_PART'));

/**product_definition_shape**/
#6=APPLICATION_CONTEXT('mechanical parts and assemblies' );
#7=DESIGN_CONTEXT('NONE',#6,'design');
#8=MECHANICAL_CONTEXT('NONE',#6,'mechanical');
#9=PRODUCT('0','Part','',(#8));
#10=PRODUCT_DEFINITION_FORMATION_WITH_SPECIFIED_SOURCE('ANY','',#9,.NOT_KNOWN.);
#11=PRODUCT_DEFINITION('UNKNOWN','',#10,#7);
#12=PRODUCT_DEFINITION_SHAPE('NONE','NONE',#11);
#13=PRODUCT_RELATED_PRODUCT_CATEGORY('detail','',(#9));
/**geometry information**/
#14=CARTESIAN_POINT('',(0.,0.,0.));
#15=DIRECTION('',(0.,0.,1.));
#16=DIRECTION('',(1.,0.,0.));
#17=AXIS2_PLACEMENT_3D('',#14,#15,#16);
#18=SHAPE_REPRESENTATION('none',(#17),#5);
#19=SHAPE_DEFINITION_REPRESENTATION(#12,#18);
#20=CARTESIAN_POINT('',(39.750154716112,-2.2,2.9821630491213));
#21=CARTESIAN_POINT('',(39.775643629168,-2.2,2.9909395290026));
#22=CARTESIAN_POINT('',(39.801132542225,-2.2,2.9997160088839));
#23=CARTESIAN_POINT('',(40.406460627937,-2.2,3.2081458369447));
#24=CARTESIAN_POINT('',(40.778230845712,-2.2,3.7293482829799));
#25=CARTESIAN_POINT('',(41.150000871824,-2.2,4.2505504603126));
#26=CARTESIAN_POINT('',(41.149999995156,-2.2,4.8907571940871));
#27=CARTESIAN_POINT('',(41.14999995824,-2.2,4.9177156765247));
#28=CARTESIAN_POINT('',(41.149999921325,-2.2,4.9446741589623));
#29=CARTESIAN_POINT('',(39.750154716112,4.0205716685048E-06,2.9821630491213));
#30=CARTESIAN_POINT('',(39.775643629168,4.0205716685047E-06,2.9909395290026));
#31=CARTESIAN_POINT('',(39.801132542225,4.0205716685045E-06,2.9997160088839));
#32=CARTESIAN_POINT('',(40.406460627937,4.0205716685006E-06,3.2081458369447));
#33=CARTESIAN_POINT('',(40.778230845712,4.0205716684838E-06,3.7293482829799));
#34=CARTESIAN_POINT('',(41.150000871824,4.0205716685006E-06,4.2505504603126));
#35=CARTESIAN_POINT('',(41.149999995156,4.0205716685045E-06,4.8907571940871));
#36=CARTESIAN_POINT('',(41.14999995824,4.0205716685047E-06,4.9177156765247));
#37=CARTESIAN_POINT('',(41.149999921325,4.0205716685048E-06,4.9446741589623));
#38=(BOUNDED_SURFACE()B_SPLINE_SURFACE(1,2,((#20,#21,#22,#23,#24,#25,#26,#27,#28),(#29,#30,#31,#32,#33,#34,#35,#36,#37)),.SURF_OF_LINEAR_EXTRUSION.,.F.,.F.,.U.)B_SPLINE_SURFACE_WITH_KNOTS((2,2),(3,2,2,2,3),(0.,1.1000020102858),(-0.05146769930468,0.,1.2556891576569,2.5113777437371,2.5628471613003),.UNSPECIFIED.)GEOMETRIC_REPRESENTATION_ITEM()RATIONAL_B_SPLINE_SURFACE(((0.85944665783288,0.85944665783288,0.85944665783288,0.88293108630903,1.,0.88293113959758,0.85944667921263,0.85944667921263,0.85944667921263),(0.85944665783288,0.85944665783288,0.85944665783288,0.88293108630903,1.,0.88293113959758,0.85944667921263,0.85944667921263,0.85944667921263)))REPRESENTATION_ITEM('')SURFACE());
#39=CARTESIAN_POINT('',(39.801132502509,0.,2.9997159952045));
#40=VERTEX_POINT('',#39);
#41=CARTESIAN_POINT('',(41.149999995158,0.,4.8907571937821));
#42=VERTEX_POINT('',#41);
#43=CARTESIAN_POINT('',(39.801132502508,0.,2.9997159952083));
#44=CARTESIAN_POINT('',(41.150001948442,0.,3.4641659590317));
#45=CARTESIAN_POINT('',(41.149999995156,0.,4.8907571937821));
#46=(BOUNDED_CURVE()B_SPLINE_CURVE(2,(#43,#44,#45),.CIRCULAR_ARC.,.F.,.U.)B_SPLINE_CURVE_WITH_KNOTS((3,3),(0.,1.),.UNSPECIFIED.)CURVE()GEOMETRIC_REPRESENTATION_ITEM()RATIONAL_B_SPLINE_CURVE((1.,0.8141145371112,1.))REPRESENTATION_ITEM(''));
#47=EDGE_CURVE('',#40,#42,#46,.T.);
#48=ORIENTED_EDGE('',*,*,#47,.T.);
#49=CARTESIAN_POINT('',(41.149999995158,-2.2,4.8907544553459));
#50=VERTEX_POINT('',#49);
#51=CARTESIAN_POINT('',(41.149999995158,0.,4.8907571937821));
#52=CARTESIAN_POINT('',(41.149999995158,-2.2,4.8907544553459));
#53=B_SPLINE_CURVE_WITH_KNOTS('',1,(#51,#52),.POLYLINE_FORM.,.F.,.U.,(2,2),(0.,1.),.UNSPECIFIED.);
#54=EDGE_CURVE('',#42,#50,#53,.T.);
#55=ORIENTED_EDGE('',*,*,#54,.T.);
#56=CARTESIAN_POINT('',(39.801136304034,-2.2,2.9997173041746));
#57=VERTEX_POINT('',#56);
#58=CARTESIAN_POINT('',(41.149999995158,-2.2,4.8907544553459));
#59=CARTESIAN_POINT('',(41.149999995129,-2.2,3.4641683195519));
#60=CARTESIAN_POINT('',(39.801136304034,-2.2,2.9997173041746));
#61=(BOUNDED_CURVE()B_SPLINE_CURVE(2,(#58,#59,#60),.CIRCULAR_ARC.,.F.,.U.)B_SPLINE_CURVE_WITH_KNOTS((3,3),(0.,1.),.UNSPECIFIED.)CURVE()GEOMETRIC_REPRESENTATION_ITEM()RATIONAL_B_SPLINE_CURVE((1.,0.81411551835632,1.))REPRESENTATION_ITEM(''));
#62=EDGE_CURVE('',#50,#57,#61,.T.);
#63=ORIENTED_EDGE('',*,*,#62,.T.);
#64=CARTESIAN_POINT('',(39.801136304034,-2.2,2.9997173041746));
#65=CARTESIAN_POINT('',(39.801132502509,0.,2.9997159952045));
#66=B_SPLINE_CURVE_WITH_KNOTS('',1,(#64,#65),.POLYLINE_FORM.,.F.,.U.,(2,2),(0.,1.),.UNSPECIFIED.);
#67=EDGE_CURVE('',#57,#40,#66,.T.);
#68=ORIENTED_EDGE('',*,*,#67,.T.);
#69=EDGE_LOOP('',(#48,#55,#63,#68));
#70=FACE_OUTER_BOUND('',#69,.T.);
#71=ADVANCED_FACE('',(#70),#38,.T.);
#72=CARTESIAN_POINT('',(39.923586776049,3.636403690441,3.0418803829467));
#73=CARTESIAN_POINT('',(30.966875235813,3.636403690441,-0.042162724423872));
#74=CARTESIAN_POINT('',(39.923586776049,-5.8363996698694,3.0418803829467));
#75=CARTESIAN_POINT('',(30.966875235813,-5.8363996698694,-0.042162724423872));
#76=B_SPLINE_SURFACE_WITH_KNOTS('',1,1,((#72,#73),(#74,#75)),.PLANE_SURF.,.F.,.F.,.U.,(2,2),(2,2),(0.,1.),(0.,1.),.UNSPECIFIED.);
#77=CARTESIAN_POINT('',(31.089324677284,0.,-4.9617081276931E-10));
#78=VERTEX_POINT('',#77);
#79=CARTESIAN_POINT('',(31.089324677284,0.,-4.9617081276931E-10));
#80=CARTESIAN_POINT('',(39.801132502509,0.,2.9997159952045));
#81=B_SPLINE_CURVE_WITH_KNOTS('',1,(#79,#80),.POLYLINE_FORM.,.F.,.U.,(2,2),(0.,1.),.UNSPECIFIED.);
#82=EDGE_CURVE('',#78,#40,#81,.T.);
#83=ORIENTED_EDGE('',*,*,#82,.T.);
#84=ORIENTED_EDGE('',*,*,#67,.F.);
#85=CARTESIAN_POINT('',(31.089324677284,-2.2,-4.9617081276931E-10));
#86=VERTEX_POINT('',#85);
#87=CARTESIAN_POINT('',(39.801136304034,-2.2,2.9997173041746));
#88=CARTESIAN_POINT('',(31.089324677284,-2.2,-4.9617081276931E-10));
#89=B_SPLINE_CURVE_WITH_KNOTS('',1,(#87,#88),.POLYLINE_FORM.,.F.,.U.,(2,2),(0.,1.),.UNSPECIFIED.);
#90=EDGE_CURVE('',#57,#86,#89,.T.);
#91=ORIENTED_EDGE('',*,*,#90,.T.);
#92=CARTESIAN_POINT('',(31.089324677284,-2.2,-4.9617081276931E-10));
#93=CARTESIAN_POINT('',(31.089324677284,0.,-4.9617081276931E-10));
#94=B_SPLINE_CURVE_WITH_KNOTS('',1,(#92,#93),.POLYLINE_FORM.,.F.,.U.,(2,2),(0.,1.),.UNSPECIFIED.);
#95=EDGE_CURVE('',#86,#78,#94,.T.);
#96=ORIENTED_EDGE('',*,*,#95,.T.);
#97=EDGE_LOOP('',(#83,#84,#91,#96));
#98=FACE_OUTER_BOUND('',#97,.T.);
#99=ADVANCED_FACE('',(#98),#76,.T.);
#100=CARTESIAN_POINT('',(-29.387049448026,-2.2,29.250000000897));
#101=CARTESIAN_POINT('',(-29.391528528091,-2.2,29.250000000813));
#102=CARTESIAN_POINT('',(-29.396007608156,-2.2,29.250000000729));
#103=CARTESIAN_POINT('',(-29.577993396979,-2.2,29.249999997312));
#104=CARTESIAN_POINT('',(-29.71740231951,-2.2,29.133021453757));
#105=CARTESIAN_POINT('',(-29.856810209842,-2.2,29.016043776323));
#106=CARTESIAN_POINT('',(-29.888411475659,-2.2,28.836824087383));
#107=CARTESIAN_POINT('',(-29.889189218009,-2.2,28.832413291222));
#108=CARTESIAN_POINT('',(-29.889966960358,-2.2,28.82800249506));
#109=CARTESIAN_POINT('',(-29.387049448026,4.7825269010098E-06,29.250000000897));
#110=CARTESIAN_POINT('',(-29.391528528091,4.7825269010125E-06,29.250000000813));
#111=CARTESIAN_POINT('',(-29.396007608156,4.7825269010152E-06,29.250000000729));
#112=CARTESIAN_POINT('',(-29.577993396979,4.7825269011247E-06,29.249999997312));
#113=CARTESIAN_POINT('',(-29.71740231951,4.7825269011703E-06,29.133021453757));
#114=CARTESIAN_POINT('',(-29.856810209842,4.7825269011247E-06,29.016043776323));
#115=CARTESIAN_POINT('',(-29.888411475659,4.7825269010152E-06,28.836824087383));
#116=CARTESIAN_POINT('',(-29.889189218009,4.7825269010125E-06,28.832413291222));
#117=CARTESIAN_POINT('',(-29.889966960358,4.7825269010098E-06,28.82800249506));
#118=(BOUNDED_SURFACE()B_SPLINE_SURFACE(1,2,((#100,#101,#102,#103,#104,#105,#106,#107,#108),(#109,#110,#111,#112,#113,#114,#115,#116,#117)),.SURF_OF_LINEAR_EXTRUSION.,.F.,.F.,.U.)B_SPLINE_SURFACE_WITH_KNOTS((2,2),(3,2,2,2,3),(0.,4.4000095650538),(-0.0085090572430031,0.,0.35130703898732,0.70261181763153,0.7111204201996),.UNSPECIFIED.)GEOMETRIC_REPRESENTATION_ITEM()RATIONAL_B_SPLINE_SURFACE(((0.85518041200672,0.85518041200672,0.85518041200672,0.86898944479865,1.,0.8689902877331,0.85518058970885,0.85518058970885,0.85518058970885),(0.85518041200672,0.85518041200672,0.85518041200672,0.86898944479865,1.,0.8689902877331,0.85518058970885,0.85518058970885,0.85518058970885)))REPRESENTATION_ITEM('')SURFACE());
#119=CARTESIAN_POINT('',(-29.888411475272,-2.2,28.836824089573));
#120=VERTEX_POINT('',#119);
#121=CARTESIAN_POINT('',(-29.396007598758,-2.2,29.250000000729));
#122=VERTEX_POINT('',#121);
#123=CARTESIAN_POINT('',(-29.888411475273,-2.2,28.836824089573));
#124=CARTESIAN_POINT('',(-29.815557414347,-2.2,29.250000000738));
#125=CARTESIAN_POINT('',(-29.396007598758,-2.2,29.250000000729));
#126=(BOUNDED_CURVE()B_SPLINE_CURVE(2,(#123,#124,#125),.CIRCULAR_ARC.,.F.,.U.)B_SPLINE_CURVE_WITH_KNOTS((3,3),(0.,1.),.UNSPECIFIED.)CURVE()GEOMETRIC_REPRESENTATION_ITEM()RATIONAL_B_SPLINE_CURVE((1.,0.76604444311898,1.))REPRESENTATION_ITEM(''));
#127=EDGE_CURVE('',#120,#122,#126,.T.);
#128=ORIENTED_EDGE('',*,*,#127,.T.);
#129=CARTESIAN_POINT('',(-29.396012381285,0.,29.250000000729));
#130=VERTEX_POINT('',#129);
#131=CARTESIAN_POINT('',(-29.396007598758,-2.2,29.250000000729));
#132=CARTESIAN_POINT('',(-29.396012381285,0.,29.250000000729));
#133=B_SPLINE_CURVE_WITH_KNOTS('',1,(#131,#132),.POLYLINE_FORM.,.F.,.U.,(2,2),(0.,1.),.UNSPECIFIED.);
#134=EDGE_CURVE('',#122,#130,#133,.T.);
#135=ORIENTED_EDGE('',*,*,#134,.T.);
#136=CARTESIAN_POINT('',(-29.888411475272,0.,28.836824089573));
#137=VERTEX_POINT('',#136);
#138=CARTESIAN_POINT('',(-29.396012381285,0.,29.250000000706));
#139=CARTESIAN_POINT('',(-29.815558121947,0.,29.249995987737));
#140=CARTESIAN_POINT('',(-29.888411475273,0.,28.836824089573));
#141=(BOUNDED_CURVE()B_SPLINE_CURVE(2,(#138,#139,#140),.CIRCULAR_ARC.,.F.,.U.)B_SPLINE_CURVE_WITH_KNOTS((3,3),(0.,1.),.UNSPECIFIED.)CURVE()GEOMETRIC_REPRESENTATION_ITEM()RATIONAL_B_SPLINE_CURVE((1.,0.76604751725925,1.))REPRESENTATION_ITEM(''));
#142=EDGE_CURVE('',#130,#137,#141,.T.);
#143=ORIENTED_EDGE('',*,*,#142,.T.);
#144=CARTESIAN_POINT('',(-29.888411475272,0.,28.836824089573));
#145=CARTESIAN_POINT('',(-29.888411475272,-2.2,28.836824089573));
#146=B_SPLINE_CURVE_WITH_KNOTS('',1,(#144,#145),.POLYLINE_FORM.,.F.,.U.,(2,2),(0.,1.),.UNSPECIFIED.);
#147=EDGE_CURVE('',#137,#120,#146,.T.);
#148=ORIENTED_EDGE('',*,*,#147,.T.);
#149=EDGE_LOOP('',(#128,#135,#143,#148));
#150=FACE_OUTER_BOUND('',#149,.T.);
#151=ADVANCED_FACE('',(#150),#118,.T.);
#152=CARTESIAN_POINT('',(-29.950000004941,0.,7.4033251368274E-10));
#153=CARTESIAN_POINT('',(-30.447056279789,0.,7.5039917432272E-10));
#154=CARTESIAN_POINT('',(-30.798528142358,0.,0.35147186333366));
#155=CARTESIAN_POINT('',(-31.150000004919,0.,0.7029437259088));
#156=CARTESIAN_POINT('',(-31.150000004917,0.,1.200000000745));
#157=CARTESIAN_POINT('',(-29.950000004941,-2.2,7.4033251368274E-10));
#158=CARTESIAN_POINT('',(-30.447056279789,-2.2,7.5039917432272E-10));
#159=CARTESIAN_POINT('',(-30.798528142358,-2.2,0.35147186333366));
#160=CARTESIAN_POINT('',(-31.150000004919,-2.2,0.7029437259088));
#161=CARTESIAN_POINT('',(-31.150000004917,-2.2,1.200000000745));
#162=(BOUNDED_SURFACE()B_SPLINE_SURFACE(1,2,((#152,#153,#154,#155,#156),(#157,#158,#159,#160,#161)),.CYLINDRICAL_SURF.,.F.,.F.,.U.)B_SPLINE_SURFACE_WITH_KNOTS((2,2),(3,2,3),(0.,1.8333333333333),(0.,0.94247779607693,1.8849555921353),.UNSPECIFIED.)GEOMETRIC_REPRESENTATION_ITEM()RATIONAL_B_SPLINE_SURFACE(((0.85355339059327,0.85355339059327,1.,0.85355339059616,0.85355339059327),(0.85355339059327,0.85355339059327,1.,0.85355339059616,0.85355339059327)))REPRESENTATION_ITEM('')SURFACE());
#163=CARTESIAN_POINT('',(-29.950000004941,-2.2,7.403296725661E-10));
#164=VERTEX_POINT('',#163);
#165=CARTESIAN_POINT('',(-31.150000004917,-2.2,1.2000000007646));
#166=VERTEX_POINT('',#165);
#167=CARTESIAN_POINT('',(-29.950000004941,-2.2,7.4033001951079E-10));
#168=CARTESIAN_POINT('',(-31.150000004941,-2.2,7.6463000308313E-10));
#169=CARTESIAN_POINT('',(-31.150000004917,-2.2,1.2000000007646));
#170=(BOUNDED_CURVE()B_SPLINE_CURVE(2,(#167,#168,#169),.CIRCULAR_ARC.,.F.,.U.)B_SPLINE_CURVE_WITH_KNOTS((3,3),(0.,1.),.UNSPECIFIED.)CURVE()GEOMETRIC_REPRESENTATION_ITEM()RATIONAL_B_SPLINE_CURVE((1.,0.70710678118654,1.))REPRESENTATION_ITEM(''));
#171=EDGE_CURVE('',#164,#166,#170,.T.);
#172=ORIENTED_EDGE('',*,*,#171,.T.);
#173=CARTESIAN_POINT('',(-31.150000004917,0.,1.2000000007646));
#174=VERTEX_POINT('',#173);
#175=CARTESIAN_POINT('',(-31.150000004917,-2.2,1.2000000007646));
#176=CARTESIAN_POINT('',(-31.150000004917,0.,1.2000000007646));
#177=B_SPLINE_CURVE_WITH_KNOTS('',1,(#175,#176),.POLYLINE_FORM.,.F.,.U.,(2,2),(0.,1.),.UNSPECIFIED.);
#178=EDGE_CURVE('',#166,#174,#177,.T.);
#179=ORIENTED_EDGE('',*,*,#178,.T.);
#180=CARTESIAN_POINT('',(-29.950000004941,0.,7.403296725661E-10));
#181=VERTEX_POINT('',#180);
#182=CARTESIAN_POINT('',(-31.150000004917,0.,1.2000000007646));
#183=CARTESIAN_POINT('',(-31.150000004941,0.,7.6462890401841E-10));
#184=CARTESIAN_POINT('',(-29.950000004941,0.,7.4033001951079E-10));
#185=(BOUNDED_CURVE()B_SPLINE_CURVE(2,(#182,#183,#184),.CIRCULAR_ARC.,.F.,.U.)B_SPLINE_CURVE_WITH_KNOTS((3,3),(0.,1.),.UNSPECIFIED.)CURVE()GEOMETRIC_REPRESENTATION_ITEM()RATIONAL_B_SPLINE_CURVE((1.,0.70710678118654,1.))REPRESENTATION_ITEM(''));
#186=EDGE_CURVE('',#174,#181,#185,.T.);
#187=ORIENTED_EDGE('',*,*,#186,.T.);
#188=CARTESIAN_POINT('',(-29.950000004941,0.,7.403296725661E-10));
#189=CARTESIAN_POINT('',(-29.950000004941,-2.2,7.403296725661E-10));
#190=B_SPLINE_CURVE_WITH_KNOTS('',1,(#188,#189),.POLYLINE_FORM.,.F.,.U.,(2,2),(0.,1.),.UNSPECIFIED.);
#191=EDGE_CURVE('',#181,#164,#190,.T.);
#192=ORIENTED_EDGE('',*,*,#191,.T.);
#193=EDGE_LOOP('',(#172,#179,#187,#192));
#194=FACE_OUTER_BOUND('',#193,.T.);
#195=ADVANCED_FACE('',(#194),#162,.T.);
#196=CARTESIAN_POINT('',(-31.150000004918,-11.399906844239,1.1410931565257));
#197=CARTESIAN_POINT('',(-31.150000004918,9.1999068442388,1.1410931565257));
#198=CARTESIAN_POINT('',(-31.1500000045,-11.399906844239,21.740906845003));
#199=CARTESIAN_POINT('',(-31.1500000045,9.1999068442388,21.740906845003));
#200=B_SPLINE_SURFACE_WITH_KNOTS('',1,1,((#196,#197),(#198,#199)),.PLANE_SURF.,.F.,.F.,.U.,(2,2),(2,2),(0.,1.),(0.,1.),.UNSPECIFIED.);
#201=CARTESIAN_POINT('',(-31.150000004502,-2.2,21.682000000764));
#202=VERTEX_POINT('',#201);
#203=CARTESIAN_POINT('',(-31.150000004502,0.,21.682000000764));
#204=VERTEX_POINT('',#203);
#205=CARTESIAN_POINT('',(-31.150000004502,-2.2,21.682000000764));
#206=CARTESIAN_POINT('',(-31.150000004502,0.,21.682000000764));
#207=B_SPLINE_CURVE_WITH_KNOTS('',1,(#205,#206),.POLYLINE_FORM.,.F.,.U.,(2,2),(0.,1.),.UNSPECIFIED.);
#208=EDGE_CURVE('',#202,#204,#207,.T.);
#209=ORIENTED_EDGE('',*,*,#208,.T.);
#210=CARTESIAN_POINT('',(-31.150000004502,0.,21.682000000764));
#211=CARTESIAN_POINT('',(-31.150000004917,0.,1.2000000007646));
#212=B_SPLINE_CURVE_WITH_KNOTS('',1,(#210,#211),.POLYLINE_FORM.,.F.,.U.,(2,2),(0.,1.),.UNSPECIFIED.);
#213=EDGE_CURVE('',#204,#174,#212,.T.);
#214=ORIENTED_EDGE('',*,*,#213,.T.);
#215=ORIENTED_EDGE('',*,*,#178,.F.);
#216=CARTESIAN_POINT('',(-31.150000004917,-2.2,1.2000000007646));
#217=CARTESIAN_POINT('',(-31.150000004502,-2.2,21.682000000764));
#218=B_SPLINE_CURVE_WITH_KNOTS('',1,(#216,#217),.POLYLINE_FORM.,.F.,.U.,(2,2),(0.,1.),.UNSPECIFIED.);
#219=EDGE_CURVE('',#166,#202,#218,.T.);
#220=ORIENTED_EDGE('',*,*,#219,.T.);
#221=EDGE_LOOP('',(#209,#214,#215,#220));
#222=FACE_OUTER_BOUND('',#221,.T.);
#223=ADVANCED_FACE('',(#222),#200,.T.);
#224=CARTESIAN_POINT('',(-31.178286439577,-4.8954944789471,21.5215796558));
#225=CARTESIAN_POINT('',(-31.178286439577,2.6954944789471,21.5215796558));
#226=CARTESIAN_POINT('',(-29.860125040197,-4.8954944789471,28.997244434537));
#227=CARTESIAN_POINT('',(-29.860125040197,2.6954944789471,28.997244434537));
#228=B_SPLINE_SURFACE_WITH_KNOTS('',1,1,((#224,#225),(#226,#227)),.PLANE_SURF.,.F.,.F.,.U.,(2,2),(2,2),(0.,1.),(0.,1.),.UNSPECIFIED.);
#229=CARTESIAN_POINT('',(-29.888411475272,0.,28.836824089573));
#230=CARTESIAN_POINT('',(-31.150000004502,0.,21.682000000764));
#231=B_SPLINE_CURVE_WITH_KNOTS('',1,(#229,#230),.POLYLINE_FORM.,.F.,.U.,(2,2),(0.,1.),.UNSPECIFIED.);
#232=EDGE_CURVE('',#137,#204,#231,.T.);
#233=ORIENTED_EDGE('',*,*,#232,.T.);
#234=ORIENTED_EDGE('',*,*,#208,.F.);
#235=CARTESIAN_POINT('',(-31.150000004502,-2.2,21.682000000764));
#236=CARTESIAN_POINT('',(-29.888411475272,-2.2,28.836824089573));
#237=B_SPLINE_CURVE_WITH_KNOTS('',1,(#235,#236),.POLYLINE_FORM.,.F.,.U.,(2,2),(0.,1.),.UNSPECIFIED.);
#238=EDGE_CURVE('',#202,#120,#237,.T.);
#239=ORIENTED_EDGE('',*,*,#238,.T.);
#240=ORIENTED_EDGE('',*,*,#147,.F.);
#241=EDGE_LOOP('',(#233,#234,#239,#240));
#242=FACE_OUTER_BOUND('',#241,.T.);
#243=ADVANCED_FACE('',(#242),#228,.T.);
#244=CARTESIAN_POINT('',(39.889967013749,-2.2,28.82800214143));
#245=CARTESIAN_POINT('',(39.889189240347,-2.2,28.8324131137));
#246=CARTESIAN_POINT('',(39.888411466945,-2.2,28.83682408597));
#247=CARTESIAN_POINT('',(39.856810201113,-2.2,29.016043775043));
#248=CARTESIAN_POINT('',(39.717402310626,-2.2,29.133021452503));
#249=CARTESIAN_POINT('',(39.57799380151,-2.2,29.249999649057));
#250=CARTESIAN_POINT('',(39.39600855243,-2.2,29.249999999335));
#251=CARTESIAN_POINT('',(39.391528746449,-2.2,29.250000007958));
#252=CARTESIAN_POINT('',(39.387048940469,-2.2,29.25000001658));
#253=CARTESIAN_POINT('',(39.889967013749,4.7815741976021E-06,28.82800214143));
#254=CARTESIAN_POINT('',(39.889189240347,4.7815741975995E-06,28.8324131137));
#255=CARTESIAN_POINT('',(39.888411466945,4.7815741975969E-06,28.83682408597));
#256=CARTESIAN_POINT('',(39.856810201113,4.7815741974912E-06,29.016043775043));
#257=CARTESIAN_POINT('',(39.717402310626,4.7815741974766E-06,29.133021452503));
#258=CARTESIAN_POINT('',(39.57799380151,4.7815741974912E-06,29.249999649057));
#259=CARTESIAN_POINT('',(39.39600855243,4.7815741975969E-06,29.249999999335));
#260=CARTESIAN_POINT('',(39.391528746449,4.7815741975995E-06,29.250000007958));
#261=CARTESIAN_POINT('',(39.387048940469,4.7815741976021E-06,29.25000001658));
#262=(BOUNDED_SURFACE()B_SPLINE_SURFACE(1,2,((#244,#245,#246,#247,#248,#249,#250,#251,#252),(#253,#254,#255,#256,#257,#258,#259,#260,#261)),.SURF_OF_LINEAR_EXTRUSION.,.F.,.F.,.U.)B_SPLINE_SURFACE_WITH_KNOTS((2,2),(3,2,2,2,3),(0.,4.4000095631484),(-0.0085089422891538,0.,0.35130477887042,0.70261091243653,0.71112134943363),.UNSPECIFIED.)GEOMETRIC_REPRESENTATION_ITEM()RATIONAL_B_SPLINE_SURFACE(((0.85518058969106,0.85518058969106,0.85518058969106,0.86899028764874,1.,0.86898978245125,0.85518048318735,0.85518048318735,0.85518048318735),(0.85518058969106,0.85518058969106,0.85518058969106,0.86899028764874,1.,0.86898978245125,0.85518048318735,0.85518048318735,0.85518048318735)))REPRESENTATION_ITEM('')SURFACE());
#263=CARTESIAN_POINT('',(39.396007590061,-2.2,29.249999999336));
#264=VERTEX_POINT('',#263);
#265=CARTESIAN_POINT('',(39.888411466559,-2.2,28.836824088159));
#266=VERTEX_POINT('',#265);
#267=CARTESIAN_POINT('',(39.396007590061,-2.2,29.249999999336));
#268=CARTESIAN_POINT('',(39.81555740565,-2.2,29.249999999327));
#269=CARTESIAN_POINT('',(39.888411466559,-2.2,28.836824088159));
#270=(BOUNDED_CURVE()B_SPLINE_CURVE(2,(#267,#268,#269),.CIRCULAR_ARC.,.F.,.U.)B_SPLINE_CURVE_WITH_KNOTS((3,3),(0.,1.),.UNSPECIFIED.)CURVE()GEOMETRIC_REPRESENTATION_ITEM()RATIONAL_B_SPLINE_CURVE((1.,0.76604444311897,1.))REPRESENTATION_ITEM(''));
#271=EDGE_CURVE('',#264,#266,#270,.T.);
#272=ORIENTED_EDGE('',*,*,#271,.T.);
#273=CARTESIAN_POINT('',(39.888411466559,0.,28.836824088159));
#274=VERTEX_POINT('',#273);
#275=CARTESIAN_POINT('',(39.888411466559,-2.2,28.836824088159));
#276=CARTESIAN_POINT('',(39.888411466559,0.,28.836824088159));
#277=B_SPLINE_CURVE_WITH_KNOTS('',1,(#275,#276),.POLYLINE_FORM.,.F.,.U.,(2,2),(0.,1.),.UNSPECIFIED.);
#278=EDGE_CURVE('',#266,#274,#277,.T.);
#279=ORIENTED_EDGE('',*,*,#278,.T.);
#280=CARTESIAN_POINT('',(39.396012371635,0.,29.249999999336));
#281=VERTEX_POINT('',#280);
#282=CARTESIAN_POINT('',(39.888411466559,0.,28.836824088159));
#283=CARTESIAN_POINT('',(39.815558113109,0.,29.249995987126));
#284=CARTESIAN_POINT('',(39.396012371635,0.,29.249999999313));
#285=(BOUNDED_CURVE()B_SPLINE_CURVE(2,(#282,#283,#284),.CIRCULAR_ARC.,.F.,.U.)B_SPLINE_CURVE_WITH_KNOTS((3,3),(0.,1.),.UNSPECIFIED.)CURVE()GEOMETRIC_REPRESENTATION_ITEM()RATIONAL_B_SPLINE_CURVE((1.,0.7660475166468,1.))REPRESENTATION_ITEM(''));
#286=EDGE_CURVE('',#274,#281,#285,.T.);
#287=ORIENTED_EDGE('',*,*,#286,.T.);
#288=CARTESIAN_POINT('',(39.396012371635,0.,29.249999999336));
#289=CARTESIAN_POINT('',(39.396007590061,-2.2,29.249999999336));
#290=B_SPLINE_CURVE_WITH_KNOTS('',1,(#288,#289),.POLYLINE_FORM.,.F.,.U.,(2,2),(0.,1.),.UNSPECIFIED.);
#291=EDGE_CURVE('',#281,#264,#290,.T.);
#292=ORIENTED_EDGE('',*,*,#291,.T.);
#293=EDGE_LOOP('',(#272,#279,#287,#292));
#294=FACE_OUTER_BOUND('',#293,.T.);
#295=ADVANCED_FACE('',(#294),#262,.T.);
#296=CARTESIAN_POINT('',(41.178286430567,2.6954944789472,21.521579654334));
#297=CARTESIAN_POINT('',(41.178286430567,-4.8954944789472,21.521579654334));
#298=CARTESIAN_POINT('',(39.86012503149,2.6954944789472,28.997244433125));
#299=CARTESIAN_POINT('',(39.86012503149,-4.8954944789472,28.997244433125));
#300=B_SPLINE_SURFACE_WITH_KNOTS('',1,1,((#296,#297),(#298,#299)),.PLANE_SURF.,.F.,.F.,.U.,(2,2),(2,2),(0.,1.),(0.,1.),.UNSPECIFIED.);
#301=CARTESIAN_POINT('',(41.149999995498,-2.2,21.6819999993));
#302=VERTEX_POINT('',#301);
#303=CARTESIAN_POINT('',(41.149999995498,0.,21.6819999993));
#304=VERTEX_POINT('',#303);
#305=CARTESIAN_POINT('',(41.149999995498,-2.2,21.6819999993));
#306=CARTESIAN_POINT('',(41.149999995498,0.,21.6819999993));
#307=B_SPLINE_CURVE_WITH_KNOTS('',1,(#305,#306),.POLYLINE_FORM.,.F.,.U.,(2,2),(0.,1.),.UNSPECIFIED.);
#308=EDGE_CURVE('',#302,#304,#307,.T.);
#309=ORIENTED_EDGE('',*,*,#308,.T.);
#310=CARTESIAN_POINT('',(41.149999995498,0.,21.6819999993));
#311=CARTESIAN_POINT('',(39.888411466559,0.,28.836824088159));
#312=B_SPLINE_CURVE_WITH_KNOTS('',1,(#310,#311),.POLYLINE_FORM.,.F.,.U.,(2,2),(0.,1.),.UNSPECIFIED.);
#313=EDGE_CURVE('',#304,#274,#312,.T.);
#314=ORIENTED_EDGE('',*,*,#313,.T.);
#315=ORIENTED_EDGE('',*,*,#278,.F.);
#316=CARTESIAN_POINT('',(39.888411466559,-2.2,28.836824088159));
#317=CARTESIAN_POINT('',(41.149999995498,-2.2,21.6819999993));
#318=B_SPLINE_CURVE_WITH_KNOTS('',1,(#316,#317),.POLYLINE_FORM.,.F.,.U.,(2,2),(0.,1.),.UNSPECIFIED.);
#319=EDGE_CURVE('',#266,#302,#318,.T.);
#320=ORIENTED_EDGE('',*,*,#319,.T.);
#321=EDGE_LOOP('',(#309,#314,#315,#320));
#322=FACE_OUTER_BOUND('',#321,.T.);
#323=ADVANCED_FACE('',(#322),#300,.T.);
#324=CARTESIAN_POINT('',(41.149999995157,7.3673790472024,4.8189995493385));
#325=CARTESIAN_POINT('',(41.149999995157,-9.5673763087662,4.8189995493385));
#326=CARTESIAN_POINT('',(41.1499999955,7.3673790472024,21.753754905307));
#327=CARTESIAN_POINT('',(41.1499999955,-9.5673763087662,21.753754905307));
#328=B_SPLINE_SURFACE_WITH_KNOTS('',1,1,((#324,#325),(#326,#327)),.PLANE_SURF.,.F.,.F.,.U.,(2,2),(2,2),(0.,1.),(0.,1.),.UNSPECIFIED.);
#329=CARTESIAN_POINT('',(41.149999995498,-2.2,21.6819999993));
#330=CARTESIAN_POINT('',(41.149999995158,-2.2,4.8907544553459));
#331=B_SPLINE_CURVE_WITH_KNOTS('',1,(#329,#330),.POLYLINE_FORM.,.F.,.U.,(2,2),(0.,1.),.UNSPECIFIED.);
#332=EDGE_CURVE('',#302,#50,#331,.T.);
#333=ORIENTED_EDGE('',*,*,#332,.T.);
#334=ORIENTED_EDGE('',*,*,#54,.F.);
#335=CARTESIAN_POINT('',(41.149999995158,0.,4.8907571937821));
#336=CARTESIAN_POINT('',(41.149999995498,0.,21.6819999993));
#337=B_SPLINE_CURVE_WITH_KNOTS('',1,(#335,#336),.POLYLINE_FORM.,.F.,.U.,(2,2),(0.,1.),.UNSPECIFIED.);
#338=EDGE_CURVE('',#42,#304,#337,.T.);
#339=ORIENTED_EDGE('',*,*,#338,.T.);
#340=ORIENTED_EDGE('',*,*,#308,.F.);
#341=EDGE_LOOP('',(#333,#334,#339,#340));
#342=FACE_OUTER_BOUND('',#341,.T.);
#343=ADVANCED_FACE('',(#342),#328,.T.);
#344=CARTESIAN_POINT('',(-29.969816857415,-31.639479193587,7.4073081450844E-10));
#345=CARTESIAN_POINT('',(31.109141529759,-31.639479193587,-4.9657283645183E-10));
#346=CARTESIAN_POINT('',(-29.969816857415,29.439479193587,7.4073081450844E-10));
#347=CARTESIAN_POINT('',(31.109141529759,29.439479193587,-4.9657283645183E-10));
#348=B_SPLINE_SURFACE_WITH_KNOTS('',1,1,((#344,#345),(#346,#347)),.PLANE_SURF.,.F.,.F.,.U.,(2,2),(2,2),(0.,1.),(0.,1.),.UNSPECIFIED.);
#349=CARTESIAN_POINT('',(-29.950000004941,0.,7.403296725661E-10));
#350=CARTESIAN_POINT('',(31.089324677284,0.,-4.9617081276931E-10));
#351=B_SPLINE_CURVE_WITH_KNOTS('',1,(#349,#350),.POLYLINE_FORM.,.F.,.U.,(2,2),(0.,1.),.UNSPECIFIED.);
#352=EDGE_CURVE('',#181,#78,#351,.T.);
#353=ORIENTED_EDGE('',*,*,#352,.T.);
#354=ORIENTED_EDGE('',*,*,#95,.F.);
#355=CARTESIAN_POINT('',(31.089324677284,-2.2,-4.9617081276931E-10));
#356=CARTESIAN_POINT('',(-29.950000004941,-2.2,7.403296725661E-10));
#357=B_SPLINE_CURVE_WITH_KNOTS('',1,(#355,#356),.POLYLINE_FORM.,.F.,.U.,(2,2),(0.,1.),.UNSPECIFIED.);
#358=EDGE_CURVE('',#86,#164,#357,.T.);
#359=ORIENTED_EDGE('',*,*,#358,.T.);
#360=ORIENTED_EDGE('',*,*,#191,.F.);
#361=EDGE_LOOP('',(#353,#354,#359,#360));
#362=FACE_OUTER_BOUND('',#361,.T.);
#363=ADVANCED_FACE('',(#362),#348,.T.);
#364=CARTESIAN_POINT('',(39.413601980387,-35.513599594425,29.249999999335));
#365=CARTESIAN_POINT('',(-29.413601990989,-35.513599594425,29.250000000729));
#366=CARTESIAN_POINT('',(39.413601980387,33.313604376952,29.249999999335));
#367=CARTESIAN_POINT('',(-29.413601990989,33.313604376952,29.250000000729));
#368=B_SPLINE_SURFACE_WITH_KNOTS('',1,1,((#364,#365),(#366,#367)),.PLANE_SURF.,.F.,.F.,.U.,(2,2),(2,2),(0.,1.),(0.,1.),.UNSPECIFIED.);
#369=ORIENTED_EDGE('',*,*,#291,.F.);
#370=CARTESIAN_POINT('',(39.396012371635,0.,29.249999999336));
#371=CARTESIAN_POINT('',(-29.396012381285,0.,29.250000000729));
#372=B_SPLINE_CURVE_WITH_KNOTS('',1,(#370,#371),.POLYLINE_FORM.,.F.,.U.,(2,2),(0.,1.),.UNSPECIFIED.);
#373=EDGE_CURVE('',#281,#130,#372,.T.);
#374=ORIENTED_EDGE('',*,*,#373,.T.);
#375=ORIENTED_EDGE('',*,*,#134,.F.);
#376=CARTESIAN_POINT('',(-29.396007598758,-2.2,29.250000000729));
#377=CARTESIAN_POINT('',(39.396007590061,-2.2,29.249999999336));
#378=B_SPLINE_CURVE_WITH_KNOTS('',1,(#376,#377),.POLYLINE_FORM.,.F.,.U.,(2,2),(0.,1.),.UNSPECIFIED.);
#379=EDGE_CURVE('',#122,#264,#378,.T.);
#380=ORIENTED_EDGE('',*,*,#379,.T.);
#381=EDGE_LOOP('',(#369,#374,#375,#380));
#382=FACE_OUTER_BOUND('',#381,.T.);
#383=ADVANCED_FACE('',(#382),#368,.T.);
#384=CARTESIAN_POINT('',(43.99632193766,-2.2,-58.109223079681));
#385=CARTESIAN_POINT('',(-33.996321947079,-2.2,-58.109223079681));
#386=CARTESIAN_POINT('',(43.99632193766,-2.2,53.621321942486));
#387=CARTESIAN_POINT('',(-33.996321947079,-2.2,53.621321942486));
#388=B_SPLINE_SURFACE_WITH_KNOTS('',1,1,((#384,#385),(#386,#387)),.PLANE_SURF.,.F.,.F.,.U.,(2,2),(2,2),(0.,1.),(0.,1.),.UNSPECIFIED.);
#389=ORIENTED_EDGE('',*,*,#127,.F.);
#390=ORIENTED_EDGE('',*,*,#238,.F.);
#391=ORIENTED_EDGE('',*,*,#219,.F.);
#392=ORIENTED_EDGE('',*,*,#171,.F.);
#393=ORIENTED_EDGE('',*,*,#358,.F.);
#394=ORIENTED_EDGE('',*,*,#90,.F.);
#395=ORIENTED_EDGE('',*,*,#62,.F.);
#396=ORIENTED_EDGE('',*,*,#332,.F.);
#397=ORIENTED_EDGE('',*,*,#319,.F.);
#398=ORIENTED_EDGE('',*,*,#271,.F.);
#399=ORIENTED_EDGE('',*,*,#379,.F.);
#400=EDGE_LOOP('',(#389,#390,#391,#392,#393,#394,#395,#396,#397,#398,#399));
#401=FACE_OUTER_BOUND('',#400,.T.);
#402=ADVANCED_FACE('',(#401),#388,.T.);
#403=CARTESIAN_POINT('',(7874.339177058,0.,7862.8935620514));
#404=CARTESIAN_POINT('',(-7864.7933289464,0.,7862.8935620514));
#405=CARTESIAN_POINT('',(7874.339177058,0.,-7846.0363772663));
#406=CARTESIAN_POINT('',(-7864.7933289464,0.,-7846.0363772663));
#407=B_SPLINE_SURFACE_WITH_KNOTS('',1,1,((#403,#404),(#405,#406)),.PLANE_SURF.,.F.,.F.,.U.,(2,2),(2,2),(0.,1.),(0.,1.),.UNSPECIFIED.);
#408=ORIENTED_EDGE('',*,*,#286,.F.);
#409=ORIENTED_EDGE('',*,*,#313,.F.);
#410=ORIENTED_EDGE('',*,*,#338,.F.);
#411=ORIENTED_EDGE('',*,*,#47,.F.);
#412=ORIENTED_EDGE('',*,*,#82,.F.);
#413=ORIENTED_EDGE('',*,*,#352,.F.);
#414=ORIENTED_EDGE('',*,*,#186,.F.);
#415=ORIENTED_EDGE('',*,*,#213,.F.);
#416=ORIENTED_EDGE('',*,*,#232,.F.);
#417=ORIENTED_EDGE('',*,*,#142,.F.);
#418=ORIENTED_EDGE('',*,*,#373,.F.);
#419=EDGE_LOOP('',(#408,#409,#410,#411,#412,#413,#414,#415,#416,#417,#418));
#420=FACE_OUTER_BOUND('',#419,.T.);
#421=ADVANCED_FACE('',(#420),#407,.T.);
#422=CLOSED_SHELL('',(#71,#99,#151,#195,#223,#243,#295,#323,#343,#363,#383,#402,#421));
#423=MANIFOLD_SOLID_BREP('S3',#422);
#424=ADVANCED_BREP_SHAPE_REPRESENTATION('none',(#423),#5);
#425=SHAPE_REPRESENTATION_RELATIONSHIP('none','generic',#18,#424);
#426=PRESENTATION_LAYER_ASSIGNMENT('0001','',(#423));
ENDSEC;
END-ISO-10303-21;
