ISO-10303-21;
HEADER;
FILE_DESCRIPTION(
  ('This file contains a STEP AP42 implementation'
    ,'as created by ZW3D STEP Interface translator.')
  ,'2;1'
  );
FILE_NAME(
  'DUV2.5-102-XX-00N.stp'
  ,'2410 8.104517',
  (''),
  ('ZWCAD Software Co.'),
  'Version 1.0',
  'ZW3D to STEP translator',
  ''
  );
FILE_SCHEMA(('CONFIG_CONTROL_DESIGN'));
ENDSEC;

DATA;

/**File Base Unit**/
#1 = (LENGTH_UNIT()NAMED_UNIT(*)SI_UNIT(.MILLI.,.METRE.));
#2 = (NAMED_UNIT(*)PLANE_ANGLE_UNIT()SI_UNIT($,.RADIAN.));
#3 = (NAMED_UNIT(*)SI_UNIT($,.STERADIAN.)SOLID_ANGLE_UNIT());
#4 = UNCERTAINTY_MEASURE_WITH_UNIT(LENGTH_MEASURE(1.E-05),#1,'DISTANCE_ACCURACY_VALUE','Maximum Tolerance applied to model');
#5 = (GEOMETRIC_REPRESENTATION_CONTEXT(3)GLOBAL_UNCERTAINTY_ASSIGNED_CONTEXT((#4))GLOBAL_UNIT_ASSIGNED_CONTEXT((#1,#2,#3))REPRESENTATION_CONTEXT('STEP 203','TOP_LEVEL_ASSEMBLY_PART'));

/**product_definition_shape**/
#6=APPLICATION_CONTEXT('mechanical parts and assemblies' );
#7=DESIGN_CONTEXT('NONE',#6,'design');
#8=MECHANICAL_CONTEXT('NONE',#6,'mechanical');
#9=PRODUCT('0','Part','',(#8));
#10=PRODUCT_DEFINITION_FORMATION_WITH_SPECIFIED_SOURCE('ANY','',#9,.NOT_KNOWN.);
#11=PRODUCT_DEFINITION('UNKNOWN','',#10,#7);
#12=PRODUCT_DEFINITION_SHAPE('NONE','NONE',#11);
#13=PRODUCT_RELATED_PRODUCT_CATEGORY('detail','',(#9));
/**geometry information**/
#14=CARTESIAN_POINT('',(0.,0.,0.));
#15=DIRECTION('',(0.,0.,1.));
#16=DIRECTION('',(1.,0.,0.));
#17=AXIS2_PLACEMENT_3D('',#14,#15,#16);
#18=SHAPE_REPRESENTATION('none',(#17),#5);
#19=SHAPE_DEFINITION_REPRESENTATION(#12,#18);
#20=CARTESIAN_POINT('',(266.86105609876,157.86506865651,0.));
#21=CARTESIAN_POINT('',(266.86552937776,157.86506865708,0.));
#22=CARTESIAN_POINT('',(266.87000265675,157.86506865766,0.));
#23=CARTESIAN_POINT('',(267.05203039206,157.86506868112,0.));
#24=CARTESIAN_POINT('',(267.19145412836,157.74804253799,0.));
#25=CARTESIAN_POINT('',(267.33087783079,157.63101642329,0.));
#26=CARTESIAN_POINT('',(267.36243269001,157.45174464307,0.));
#27=CARTESIAN_POINT('',(267.36320814952,157.44733904565,0.));
#28=CARTESIAN_POINT('',(267.36398360903,157.44293344823,0.));
#29=CARTESIAN_POINT('',(266.86105609876,157.86506865651,2.2));
#30=CARTESIAN_POINT('',(266.86552937776,157.86506865708,2.2));
#31=CARTESIAN_POINT('',(266.87000265675,157.86506865766,2.2));
#32=CARTESIAN_POINT('',(267.05203039206,157.86506868112,2.2));
#33=CARTESIAN_POINT('',(267.19145412836,157.74804253799,2.2));
#34=CARTESIAN_POINT('',(267.33087783079,157.63101642329,2.2));
#35=CARTESIAN_POINT('',(267.36243269001,157.45174464307,2.2));
#36=CARTESIAN_POINT('',(267.36320814952,157.44733904565,2.2));
#37=CARTESIAN_POINT('',(267.36398360903,157.44293344823,2.2));
#38=(BOUNDED_SURFACE()B_SPLINE_SURFACE(1,2,((#20,#21,#22,#23,#24,#25,#26,#27,#28),(#29,#30,#31,#32,#33,#34,#35,#36,#37)),.SURF_OF_LINEAR_EXTRUSION.,.F.,.F.,.U.)B_SPLINE_SURFACE_WITH_KNOTS((2,2),(3,2,2,2,3),(0.,4.399999993312),(-0.0084979818336263,1.7347234759768E-18,0.3513774023814,0.70275473057782,0.71125279764632),.UNSPECIFIED.)GEOMETRIC_REPRESENTATION_ITEM()RATIONAL_B_SPLINE_SURFACE(((0.85517488511953,0.85517488511953,0.85517488511953,0.86896320485373,1.,0.86896323251904,0.85517489094169,0.85517489094169,0.85517489094169),(0.85517488511953,0.85517488511953,0.85517488511953,0.86896320485373,1.,0.86896323251904,0.85517489094169,0.85517489094169,0.85517489094169)))REPRESENTATION_ITEM('')SURFACE());
#39=CARTESIAN_POINT('',(266.8700027427,157.8650686576,0.));
#40=VERTEX_POINT('',#39);
#41=CARTESIAN_POINT('',(266.8700027427,157.8650686576,2.2));
#42=VERTEX_POINT('',#41);
#43=CARTESIAN_POINT('',(266.8700027427,157.8650686576,0.));
#44=CARTESIAN_POINT('',(266.8700027427,157.8650686576,2.2));
#45=B_SPLINE_CURVE_WITH_KNOTS('',1,(#43,#44),.POLYLINE_FORM.,.F.,.U.,(2,2),(0.,1.),.UNSPECIFIED.);
#46=EDGE_CURVE('',#40,#42,#45,.T.);
#47=ORIENTED_EDGE('',*,*,#46,.T.);
#48=CARTESIAN_POINT('',(267.3624326886,157.4517446508,2.2));
#49=VERTEX_POINT('',#48);
#50=CARTESIAN_POINT('',(266.8700027427,157.86506865766,2.2));
#51=CARTESIAN_POINT('',(267.28968068348,157.86506863961,2.2));
#52=CARTESIAN_POINT('',(267.36243268865,157.45174465081,2.2));
#53=(BOUNDED_CURVE()B_SPLINE_CURVE(2,(#50,#51,#52),.CIRCULAR_ARC.,.F.,.U.)B_SPLINE_CURVE_WITH_KNOTS((3,3),(0.,1.),.UNSPECIFIED.)CURVE()GEOMETRIC_REPRESENTATION_ITEM()RATIONAL_B_SPLINE_CURVE((1.,0.76594778865861,1.))REPRESENTATION_ITEM(''));
#54=EDGE_CURVE('',#42,#49,#53,.T.);
#55=ORIENTED_EDGE('',*,*,#54,.T.);
#56=CARTESIAN_POINT('',(267.3624326886,157.4517446508,0.));
#57=VERTEX_POINT('',#56);
#58=CARTESIAN_POINT('',(267.3624326886,157.4517446508,2.2));
#59=CARTESIAN_POINT('',(267.3624326886,157.4517446508,0.));
#60=B_SPLINE_CURVE_WITH_KNOTS('',1,(#58,#59),.POLYLINE_FORM.,.F.,.U.,(2,2),(0.,1.),.UNSPECIFIED.);
#61=EDGE_CURVE('',#49,#57,#60,.T.);
#62=ORIENTED_EDGE('',*,*,#61,.T.);
#63=CARTESIAN_POINT('',(267.36243268865,157.45174465081,0.));
#64=CARTESIAN_POINT('',(267.28968068348,157.86506863961,0.));
#65=CARTESIAN_POINT('',(266.8700027427,157.86506865766,0.));
#66=(BOUNDED_CURVE()B_SPLINE_CURVE(2,(#63,#64,#65),.CIRCULAR_ARC.,.F.,.U.)B_SPLINE_CURVE_WITH_KNOTS((3,3),(0.,1.),.UNSPECIFIED.)CURVE()GEOMETRIC_REPRESENTATION_ITEM()RATIONAL_B_SPLINE_CURVE((1.,0.76594778865861,1.))REPRESENTATION_ITEM(''));
#67=EDGE_CURVE('',#57,#40,#66,.T.);
#68=ORIENTED_EDGE('',*,*,#67,.T.);
#69=EDGE_LOOP('',(#47,#55,#62,#68));
#70=FACE_OUTER_BOUND('',#69,.T.);
#71=ADVANCED_FACE('',(#70),#38,.T.);
#72=CARTESIAN_POINT('',(267.33395218262,157.6132358854,-2.6713893552316));
#73=CARTESIAN_POINT('',(268.64397590594,150.18509018682,-2.6713893552316));
#74=CARTESIAN_POINT('',(267.33395218262,157.6132358854,4.8713893552316));
#75=CARTESIAN_POINT('',(268.64397590594,150.18509018682,4.8713893552316));
#76=B_SPLINE_SURFACE_WITH_KNOTS('',1,1,((#72,#73),(#74,#75)),.PLANE_SURF.,.F.,.F.,.U.,(2,2),(2,2),(0.,1.),(0.,1.),.UNSPECIFIED.);
#77=ORIENTED_EDGE('',*,*,#61,.F.);
#78=CARTESIAN_POINT('',(268.6154953999,150.3465814214,2.2));
#79=VERTEX_POINT('',#78);
#80=CARTESIAN_POINT('',(267.3624326886,157.4517446508,2.2));
#81=CARTESIAN_POINT('',(268.6154953999,150.3465814214,2.2));
#82=B_SPLINE_CURVE_WITH_KNOTS('',1,(#80,#81),.POLYLINE_FORM.,.F.,.U.,(2,2),(0.,1.),.UNSPECIFIED.);
#83=EDGE_CURVE('',#49,#79,#82,.T.);
#84=ORIENTED_EDGE('',*,*,#83,.T.);
#85=CARTESIAN_POINT('',(268.6154953999,150.3465814214,0.));
#86=VERTEX_POINT('',#85);
#87=CARTESIAN_POINT('',(268.6154953999,150.3465814214,2.2));
#88=CARTESIAN_POINT('',(268.6154953999,150.3465814214,0.));
#89=B_SPLINE_CURVE_WITH_KNOTS('',1,(#87,#88),.POLYLINE_FORM.,.F.,.U.,(2,2),(0.,1.),.UNSPECIFIED.);
#90=EDGE_CURVE('',#79,#86,#89,.T.);
#91=ORIENTED_EDGE('',*,*,#90,.T.);
#92=CARTESIAN_POINT('',(268.6154953999,150.3465814214,0.));
#93=CARTESIAN_POINT('',(267.3624326886,157.4517446508,0.));
#94=B_SPLINE_CURVE_WITH_KNOTS('',1,(#92,#93),.POLYLINE_FORM.,.F.,.U.,(2,2),(0.,1.),.UNSPECIFIED.);
#95=EDGE_CURVE('',#86,#57,#94,.T.);
#96=ORIENTED_EDGE('',*,*,#95,.T.);
#97=EDGE_LOOP('',(#77,#84,#91,#96));
#98=FACE_OUTER_BOUND('',#97,.T.);
#99=ADVANCED_FACE('',(#98),#76,.T.);
#100=CARTESIAN_POINT('',(268.6154953999,150.41475165295,-7.8089266152512));
#101=CARTESIAN_POINT('',(268.6154953999,132.59689842245,-7.8089266152512));
#102=CARTESIAN_POINT('',(268.6154953999,150.41475165295,10.008926615251));
#103=CARTESIAN_POINT('',(268.6154953999,132.59689842245,10.008926615251));
#104=B_SPLINE_SURFACE_WITH_KNOTS('',1,1,((#100,#101),(#102,#103)),.PLANE_SURF.,.F.,.F.,.U.,(2,2),(2,2),(0.,1.),(0.,1.),.UNSPECIFIED.);
#105=CARTESIAN_POINT('',(268.6154953999,132.665068654,0.));
#106=VERTEX_POINT('',#105);
#107=CARTESIAN_POINT('',(268.6154953999,132.665068654,0.));
#108=CARTESIAN_POINT('',(268.6154953999,150.3465814214,0.));
#109=B_SPLINE_CURVE_WITH_KNOTS('',1,(#107,#108),.POLYLINE_FORM.,.F.,.U.,(2,2),(0.,1.),.UNSPECIFIED.);
#110=EDGE_CURVE('',#106,#86,#109,.T.);
#111=ORIENTED_EDGE('',*,*,#110,.T.);
#112=ORIENTED_EDGE('',*,*,#90,.F.);
#113=CARTESIAN_POINT('',(268.6154953999,132.665068654,2.2));
#114=VERTEX_POINT('',#113);
#115=CARTESIAN_POINT('',(268.6154953999,150.3465814214,2.2));
#116=CARTESIAN_POINT('',(268.6154953999,132.665068654,2.2));
#117=B_SPLINE_CURVE_WITH_KNOTS('',1,(#115,#116),.POLYLINE_FORM.,.F.,.U.,(2,2),(0.,1.),.UNSPECIFIED.);
#118=EDGE_CURVE('',#79,#114,#117,.T.);
#119=ORIENTED_EDGE('',*,*,#118,.T.);
#120=CARTESIAN_POINT('',(268.6154953999,132.665068654,2.2));
#121=CARTESIAN_POINT('',(268.6154953999,132.665068654,0.));
#122=B_SPLINE_CURVE_WITH_KNOTS('',1,(#120,#121),.POLYLINE_FORM.,.F.,.U.,(2,2),(0.,1.),.UNSPECIFIED.);
#123=EDGE_CURVE('',#114,#106,#122,.T.);
#124=ORIENTED_EDGE('',*,*,#123,.T.);
#125=EDGE_LOOP('',(#111,#112,#119,#124));
#126=FACE_OUTER_BOUND('',#125,.T.);
#127=ADVANCED_FACE('',(#126),#104,.T.);
#128=CARTESIAN_POINT('',(264.6154953999,128.665068654,2.2));
#129=CARTESIAN_POINT('',(266.27234964939,128.665068654,2.2));
#130=CARTESIAN_POINT('',(267.44392252465,129.83664152925,2.2));
#131=CARTESIAN_POINT('',(268.61549539987,131.00821440448,2.2));
#132=CARTESIAN_POINT('',(268.6154953999,132.66506865392,2.2));
#133=CARTESIAN_POINT('',(264.6154953999,128.665068654,-2.6014143622693E-16));
#134=CARTESIAN_POINT('',(266.27234964939,128.665068654,-3.9021215434E-16));
#135=CARTESIAN_POINT('',(267.44392252465,129.83664152925,-4.4408920985006E-16));
#136=CARTESIAN_POINT('',(268.61549539987,131.00821440448,-3.9021215434139E-16));
#137=CARTESIAN_POINT('',(268.6154953999,132.66506865392,-2.6014143623267E-16));
#138=(BOUNDED_SURFACE()B_SPLINE_SURFACE(1,2,((#128,#129,#130,#131,#132),(#133,#134,#135,#136,#137)),.CYLINDRICAL_SURF.,.F.,.F.,.U.)B_SPLINE_SURFACE_WITH_KNOTS((2,2),(3,2,3),(0.,0.55),(0.,3.141592653586,6.2831853071027),.UNSPECIFIED.)GEOMETRIC_REPRESENTATION_ITEM()RATIONAL_B_SPLINE_SURFACE(((0.85355339059327,0.85355339059345,1.,0.85355339059668,0.85355339059327),(0.85355339059327,0.85355339059345,1.,0.85355339059668,0.85355339059327)))REPRESENTATION_ITEM('')SURFACE());
#139=ORIENTED_EDGE('',*,*,#123,.F.);
#140=CARTESIAN_POINT('',(264.6154953999,128.665068654,2.2));
#141=VERTEX_POINT('',#140);
#142=CARTESIAN_POINT('',(268.6154953999,132.665068654,2.2));
#143=CARTESIAN_POINT('',(268.6154953999,128.665068654,2.2));
#144=CARTESIAN_POINT('',(264.6154953999,128.665068654,2.2));
#145=(BOUNDED_CURVE()B_SPLINE_CURVE(2,(#142,#143,#144),.CIRCULAR_ARC.,.F.,.U.)B_SPLINE_CURVE_WITH_KNOTS((3,3),(0.,1.),.UNSPECIFIED.)CURVE()GEOMETRIC_REPRESENTATION_ITEM()RATIONAL_B_SPLINE_CURVE((1.,0.70710678118655,1.))REPRESENTATION_ITEM(''));
#146=EDGE_CURVE('',#114,#141,#145,.T.);
#147=ORIENTED_EDGE('',*,*,#146,.T.);
#148=CARTESIAN_POINT('',(264.6154953999,128.665068654,0.));
#149=VERTEX_POINT('',#148);
#150=CARTESIAN_POINT('',(264.6154953999,128.665068654,2.2));
#151=CARTESIAN_POINT('',(264.6154953999,128.665068654,0.));
#152=B_SPLINE_CURVE_WITH_KNOTS('',1,(#150,#151),.POLYLINE_FORM.,.F.,.U.,(2,2),(0.,1.),.UNSPECIFIED.);
#153=EDGE_CURVE('',#141,#149,#152,.T.);
#154=ORIENTED_EDGE('',*,*,#153,.T.);
#155=CARTESIAN_POINT('',(264.6154953999,128.665068654,0.));
#156=CARTESIAN_POINT('',(268.6154953999,128.665068654,0.));
#157=CARTESIAN_POINT('',(268.6154953999,132.665068654,0.));
#158=(BOUNDED_CURVE()B_SPLINE_CURVE(2,(#155,#156,#157),.CIRCULAR_ARC.,.F.,.U.)B_SPLINE_CURVE_WITH_KNOTS((3,3),(0.,1.),.UNSPECIFIED.)CURVE()GEOMETRIC_REPRESENTATION_ITEM()RATIONAL_B_SPLINE_CURVE((1.,0.70710678118655,1.))REPRESENTATION_ITEM(''));
#159=EDGE_CURVE('',#149,#106,#158,.T.);
#160=ORIENTED_EDGE('',*,*,#159,.T.);
#161=EDGE_LOOP('',(#139,#147,#154,#160));
#162=FACE_OUTER_BOUND('',#161,.T.);
#163=ADVANCED_FACE('',(#162),#138,.T.);
#164=CARTESIAN_POINT('',(225.98417366547,128.665068654,20.431321734429));
#165=CARTESIAN_POINT('',(264.64681713433,128.665068654,20.431321734429));
#166=CARTESIAN_POINT('',(225.98417366547,128.665068654,-18.231321734429));
#167=CARTESIAN_POINT('',(264.64681713433,128.665068654,-18.231321734429));
#168=B_SPLINE_SURFACE_WITH_KNOTS('',1,1,((#164,#165),(#166,#167)),.PLANE_SURF.,.F.,.F.,.U.,(2,2),(2,2),(0.,1.),(0.,1.),.UNSPECIFIED.);
#169=CARTESIAN_POINT('',(226.0154953999,128.665068654,2.2));
#170=VERTEX_POINT('',#169);
#171=CARTESIAN_POINT('',(264.6154953999,128.665068654,2.2));
#172=CARTESIAN_POINT('',(226.0154953999,128.665068654,2.2));
#173=B_SPLINE_CURVE_WITH_KNOTS('',1,(#171,#172),.POLYLINE_FORM.,.F.,.U.,(2,2),(0.,1.),.UNSPECIFIED.);
#174=EDGE_CURVE('',#141,#170,#173,.T.);
#175=ORIENTED_EDGE('',*,*,#174,.T.);
#176=CARTESIAN_POINT('',(226.0154953999,128.665068654,0.));
#177=VERTEX_POINT('',#176);
#178=CARTESIAN_POINT('',(226.0154953999,128.665068654,2.2));
#179=CARTESIAN_POINT('',(226.0154953999,128.665068654,0.));
#180=B_SPLINE_CURVE_WITH_KNOTS('',1,(#178,#179),.POLYLINE_FORM.,.F.,.U.,(2,2),(0.,1.),.UNSPECIFIED.);
#181=EDGE_CURVE('',#170,#177,#180,.T.);
#182=ORIENTED_EDGE('',*,*,#181,.T.);
#183=CARTESIAN_POINT('',(226.0154953999,128.665068654,0.));
#184=CARTESIAN_POINT('',(264.6154953999,128.665068654,0.));
#185=B_SPLINE_CURVE_WITH_KNOTS('',1,(#183,#184),.POLYLINE_FORM.,.F.,.U.,(2,2),(0.,1.),.UNSPECIFIED.);
#186=EDGE_CURVE('',#177,#149,#185,.T.);
#187=ORIENTED_EDGE('',*,*,#186,.T.);
#188=ORIENTED_EDGE('',*,*,#153,.F.);
#189=EDGE_LOOP('',(#175,#182,#187,#188));
#190=FACE_OUTER_BOUND('',#189,.T.);
#191=ADVANCED_FACE('',(#190),#168,.T.);
#192=CARTESIAN_POINT('',(220.0154953999,134.66506865399,2.2));
#193=CARTESIAN_POINT('',(220.0154953999,132.17978727976,2.2));
#194=CARTESIAN_POINT('',(221.77285471278,130.42242796688,2.2));
#195=CARTESIAN_POINT('',(223.53021402566,128.665068654,2.2));
#196=CARTESIAN_POINT('',(226.0154953999,128.665068654,2.2));
#197=CARTESIAN_POINT('',(220.0154953999,134.66506865399,-2.6014143622693E-16));
#198=CARTESIAN_POINT('',(220.0154953999,132.17978727976,-3.9021215434E-16));
#199=CARTESIAN_POINT('',(221.77285471278,130.42242796688,-4.4408920985006E-16));
#200=CARTESIAN_POINT('',(223.53021402566,128.665068654,-3.9021215433989E-16));
#201=CARTESIAN_POINT('',(226.0154953999,128.665068654,-2.6014143622647E-16));
#202=(BOUNDED_SURFACE()B_SPLINE_SURFACE(1,2,((#192,#193,#194,#195,#196),(#197,#198,#199,#200,#201)),.CYLINDRICAL_SURF.,.F.,.F.,.U.)B_SPLINE_SURFACE_WITH_KNOTS((2,2),(3,2,3),(0.,0.36666666666667),(0.,4.7123889803789,9.4247779607662),.UNSPECIFIED.)GEOMETRIC_REPRESENTATION_ITEM()RATIONAL_B_SPLINE_SURFACE(((0.85355339059327,0.85355339059345,1.,0.85355339059319,0.85355339059328),(0.85355339059327,0.85355339059345,1.,0.85355339059319,0.85355339059328)))REPRESENTATION_ITEM('')SURFACE());
#203=ORIENTED_EDGE('',*,*,#181,.F.);
#204=CARTESIAN_POINT('',(220.0154953999,134.665068654,2.2));
#205=VERTEX_POINT('',#204);
#206=CARTESIAN_POINT('',(226.0154953999,128.665068654,2.2));
#207=CARTESIAN_POINT('',(220.0154953999,128.665068654,2.2));
#208=CARTESIAN_POINT('',(220.0154953999,134.665068654,2.2));
#209=(BOUNDED_CURVE()B_SPLINE_CURVE(2,(#206,#207,#208),.CIRCULAR_ARC.,.F.,.U.)B_SPLINE_CURVE_WITH_KNOTS((3,3),(0.,1.),.UNSPECIFIED.)CURVE()GEOMETRIC_REPRESENTATION_ITEM()RATIONAL_B_SPLINE_CURVE((1.,0.70710678118655,1.))REPRESENTATION_ITEM(''));
#210=EDGE_CURVE('',#170,#205,#209,.T.);
#211=ORIENTED_EDGE('',*,*,#210,.T.);
#212=CARTESIAN_POINT('',(220.0154953999,134.665068654,0.));
#213=VERTEX_POINT('',#212);
#214=CARTESIAN_POINT('',(220.0154953999,134.665068654,2.2));
#215=CARTESIAN_POINT('',(220.0154953999,134.665068654,0.));
#216=B_SPLINE_CURVE_WITH_KNOTS('',1,(#214,#215),.POLYLINE_FORM.,.F.,.U.,(2,2),(0.,1.),.UNSPECIFIED.);
#217=EDGE_CURVE('',#205,#213,#216,.T.);
#218=ORIENTED_EDGE('',*,*,#217,.T.);
#219=CARTESIAN_POINT('',(220.0154953999,134.665068654,0.));
#220=CARTESIAN_POINT('',(220.0154953999,128.665068654,0.));
#221=CARTESIAN_POINT('',(226.0154953999,128.665068654,0.));
#222=(BOUNDED_CURVE()B_SPLINE_CURVE(2,(#219,#220,#221),.CIRCULAR_ARC.,.F.,.U.)B_SPLINE_CURVE_WITH_KNOTS((3,3),(0.,1.),.UNSPECIFIED.)CURVE()GEOMETRIC_REPRESENTATION_ITEM()RATIONAL_B_SPLINE_CURVE((1.,0.70710678118655,1.))REPRESENTATION_ITEM(''));
#223=EDGE_CURVE('',#213,#177,#222,.T.);
#224=ORIENTED_EDGE('',*,*,#223,.T.);
#225=EDGE_LOOP('',(#203,#211,#218,#224));
#226=FACE_OUTER_BOUND('',#225,.T.);
#227=ADVANCED_FACE('',(#226),#202,.T.);
#228=CARTESIAN_POINT('',(220.0154953999,134.58828371046,-6.8175413272387));
#229=CARTESIAN_POINT('',(220.0154953999,150.42336636494,-6.8175413272387));
#230=CARTESIAN_POINT('',(220.0154953999,134.58828371046,9.0175413272387));
#231=CARTESIAN_POINT('',(220.0154953999,150.42336636494,9.0175413272387));
#232=B_SPLINE_SURFACE_WITH_KNOTS('',1,1,((#228,#229),(#230,#231)),.PLANE_SURF.,.F.,.F.,.U.,(2,2),(2,2),(0.,1.),(0.,1.),.UNSPECIFIED.);
#233=CARTESIAN_POINT('',(220.0154953999,150.3465814214,2.2));
#234=VERTEX_POINT('',#233);
#235=CARTESIAN_POINT('',(220.0154953999,134.665068654,2.2));
#236=CARTESIAN_POINT('',(220.0154953999,150.3465814214,2.2));
#237=B_SPLINE_CURVE_WITH_KNOTS('',1,(#235,#236),.POLYLINE_FORM.,.F.,.U.,(2,2),(0.,1.),.UNSPECIFIED.);
#238=EDGE_CURVE('',#205,#234,#237,.T.);
#239=ORIENTED_EDGE('',*,*,#238,.T.);
#240=CARTESIAN_POINT('',(220.0154953999,150.3465814214,0.));
#241=VERTEX_POINT('',#240);
#242=CARTESIAN_POINT('',(220.0154953999,150.3465814214,2.2));
#243=CARTESIAN_POINT('',(220.0154953999,150.3465814214,0.));
#244=B_SPLINE_CURVE_WITH_KNOTS('',1,(#242,#243),.POLYLINE_FORM.,.F.,.U.,(2,2),(0.,1.),.UNSPECIFIED.);
#245=EDGE_CURVE('',#234,#241,#244,.T.);
#246=ORIENTED_EDGE('',*,*,#245,.T.);
#247=CARTESIAN_POINT('',(220.0154953999,150.3465814214,0.));
#248=CARTESIAN_POINT('',(220.0154953999,134.665068654,0.));
#249=B_SPLINE_CURVE_WITH_KNOTS('',1,(#247,#248),.POLYLINE_FORM.,.F.,.U.,(2,2),(0.,1.),.UNSPECIFIED.);
#250=EDGE_CURVE('',#241,#213,#249,.T.);
#251=ORIENTED_EDGE('',*,*,#250,.T.);
#252=ORIENTED_EDGE('',*,*,#217,.F.);
#253=EDGE_LOOP('',(#239,#246,#251,#252));
#254=FACE_OUTER_BOUND('',#253,.T.);
#255=ADVANCED_FACE('',(#254),#232,.T.);
#256=CARTESIAN_POINT('',(219.98701492334,150.18509035449,-2.6713931006728));
#257=CARTESIAN_POINT('',(221.29703994767,157.61324343011,-2.6713931006728));
#258=CARTESIAN_POINT('',(219.98701492334,150.18509035449,4.8713931006728));
#259=CARTESIAN_POINT('',(221.29703994767,157.61324343011,4.8713931006728));
#260=B_SPLINE_SURFACE_WITH_KNOTS('',1,1,((#256,#257),(#258,#259)),.PLANE_SURF.,.F.,.F.,.U.,(2,2),(2,2),(0.,1.),(0.,1.),.UNSPECIFIED.);
#261=ORIENTED_EDGE('',*,*,#245,.F.);
#262=CARTESIAN_POINT('',(221.2685594712,157.4517523632,2.2));
#263=VERTEX_POINT('',#262);
#264=CARTESIAN_POINT('',(220.0154953999,150.3465814214,2.2));
#265=CARTESIAN_POINT('',(221.2685594712,157.4517523632,2.2));
#266=B_SPLINE_CURVE_WITH_KNOTS('',1,(#264,#265),.POLYLINE_FORM.,.F.,.U.,(2,2),(0.,1.),.UNSPECIFIED.);
#267=EDGE_CURVE('',#234,#263,#266,.T.);
#268=ORIENTED_EDGE('',*,*,#267,.T.);
#269=CARTESIAN_POINT('',(221.2685594712,157.4517523632,0.));
#270=VERTEX_POINT('',#269);
#271=CARTESIAN_POINT('',(221.2685594712,157.4517523632,2.2));
#272=CARTESIAN_POINT('',(221.2685594712,157.4517523632,0.));
#273=B_SPLINE_CURVE_WITH_KNOTS('',1,(#271,#272),.POLYLINE_FORM.,.F.,.U.,(2,2),(0.,1.),.UNSPECIFIED.);
#274=EDGE_CURVE('',#263,#270,#273,.T.);
#275=ORIENTED_EDGE('',*,*,#274,.T.);
#276=CARTESIAN_POINT('',(221.2685594712,157.4517523632,0.));
#277=CARTESIAN_POINT('',(220.0154953999,150.3465814214,0.));
#278=B_SPLINE_CURVE_WITH_KNOTS('',1,(#276,#277),.POLYLINE_FORM.,.F.,.U.,(2,2),(0.,1.),.UNSPECIFIED.);
#279=EDGE_CURVE('',#270,#241,#278,.T.);
#280=ORIENTED_EDGE('',*,*,#279,.T.);
#281=EDGE_LOOP('',(#261,#268,#275,#280));
#282=FACE_OUTER_BOUND('',#281,.T.);
#283=ADVANCED_FACE('',(#282),#260,.T.);
#284=CARTESIAN_POINT('',(221.26700831079,157.44294059724,0.));
#285=CARTESIAN_POINT('',(221.26778388354,157.44734643789,0.));
#286=CARTESIAN_POINT('',(221.2685594563,157.45175227854,0.));
#287=CARTESIAN_POINT('',(221.30011671957,157.63102143431,0.));
#288=CARTESIAN_POINT('',(221.43953968044,157.74804506036,0.));
#289=CARTESIAN_POINT('',(221.57896260744,157.86506865798,0.));
#290=CARTESIAN_POINT('',(221.76098808636,157.86506865512,0.));
#291=CARTESIAN_POINT('',(221.76546171421,157.86506865505,0.));
#292=CARTESIAN_POINT('',(221.76993534206,157.86506865498,0.));
#293=CARTESIAN_POINT('',(221.26700831079,157.44294059724,2.2));
#294=CARTESIAN_POINT('',(221.26778388354,157.44734643789,2.2));
#295=CARTESIAN_POINT('',(221.2685594563,157.45175227854,2.2));
#296=CARTESIAN_POINT('',(221.30011671957,157.63102143431,2.2));
#297=CARTESIAN_POINT('',(221.43953968044,157.74804506036,2.2));
#298=CARTESIAN_POINT('',(221.57896260744,157.86506865798,2.2));
#299=CARTESIAN_POINT('',(221.76098808636,157.86506865512,2.2));
#300=CARTESIAN_POINT('',(221.76546171421,157.86506865505,2.2));
#301=CARTESIAN_POINT('',(221.76993534206,157.86506865498,2.2));
#302=(BOUNDED_SURFACE()B_SPLINE_SURFACE(1,2,((#284,#285,#286,#287,#288,#289,#290,#291,#292),(#293,#294,#295,#296,#297,#298,#299,#300,#301)),.SURF_OF_LINEAR_EXTRUSION.,.F.,.F.,.U.)B_SPLINE_SURFACE_WITH_KNOTS((2,2),(3,2,2,2,3),(0.,4.4000000156719),(-0.0084985622738375,0.,0.35137369143642,0.7027473086892,0.71124595619899),.UNSPECIFIED.)GEOMETRIC_REPRESENTATION_ITEM()RATIONAL_B_SPLINE_SURFACE(((0.85517517623313,0.85517517623313,0.85517517623313,0.86896458808542,1.,0.86896461575022,0.85517518205571,0.85517518205571,0.85517518205571),(0.85517517623313,0.85517517623313,0.85517517623313,0.86896458808542,1.,0.86896461575022,0.85517518205571,0.85517518205571,0.85517518205571)))REPRESENTATION_ITEM('')SURFACE());
#303=ORIENTED_EDGE('',*,*,#274,.F.);
#304=CARTESIAN_POINT('',(221.7609880785,157.8650686551,2.2));
#305=VERTEX_POINT('',#304);
#306=CARTESIAN_POINT('',(221.26855947121,157.4517523632,2.2));
#307=CARTESIAN_POINT('',(221.34131679588,157.86506865512,2.2));
#308=CARTESIAN_POINT('',(221.7609880785,157.86506865512,2.2));
#309=(BOUNDED_CURVE()B_SPLINE_CURVE(2,(#306,#307,#308),.CIRCULAR_ARC.,.F.,.U.)B_SPLINE_CURVE_WITH_KNOTS((3,3),(0.,1.),.UNSPECIFIED.)CURVE()GEOMETRIC_REPRESENTATION_ITEM()RATIONAL_B_SPLINE_CURVE((1.,0.765952809648,1.))REPRESENTATION_ITEM(''));
#310=EDGE_CURVE('',#263,#305,#309,.T.);
#311=ORIENTED_EDGE('',*,*,#310,.T.);
#312=CARTESIAN_POINT('',(221.7609880785,157.8650686551,0.));
#313=VERTEX_POINT('',#312);
#314=CARTESIAN_POINT('',(221.7609880785,157.8650686551,2.2));
#315=CARTESIAN_POINT('',(221.7609880785,157.8650686551,0.));
#316=B_SPLINE_CURVE_WITH_KNOTS('',1,(#314,#315),.POLYLINE_FORM.,.F.,.U.,(2,2),(0.,1.),.UNSPECIFIED.);
#317=EDGE_CURVE('',#305,#313,#316,.T.);
#318=ORIENTED_EDGE('',*,*,#317,.T.);
#319=CARTESIAN_POINT('',(221.7609880785,157.86506865512,0.));
#320=CARTESIAN_POINT('',(221.34131679588,157.86506865512,0.));
#321=CARTESIAN_POINT('',(221.26855947121,157.4517523632,0.));
#322=(BOUNDED_CURVE()B_SPLINE_CURVE(2,(#319,#320,#321),.CIRCULAR_ARC.,.F.,.U.)B_SPLINE_CURVE_WITH_KNOTS((3,3),(0.,1.),.UNSPECIFIED.)CURVE()GEOMETRIC_REPRESENTATION_ITEM()RATIONAL_B_SPLINE_CURVE((1.,0.765952809648,1.))REPRESENTATION_ITEM(''));
#323=EDGE_CURVE('',#313,#270,#322,.T.);
#324=ORIENTED_EDGE('',*,*,#323,.T.);
#325=EDGE_LOOP('',(#303,#311,#318,#324));
#326=FACE_OUTER_BOUND('',#325,.T.);
#327=ADVANCED_FACE('',(#326),#302,.T.);
#328=CARTESIAN_POINT('',(266.89681071759,157.8650686551,23.681315306991));
#329=CARTESIAN_POINT('',(221.73418010361,157.8650686551,23.681315306991));
#330=CARTESIAN_POINT('',(266.89681071759,157.8650686551,-21.481315306991));
#331=CARTESIAN_POINT('',(221.73418010361,157.8650686551,-21.481315306991));
#332=B_SPLINE_SURFACE_WITH_KNOTS('',1,1,((#328,#329),(#330,#331)),.PLANE_SURF.,.F.,.F.,.U.,(2,2),(2,2),(0.,1.),(0.,1.),.UNSPECIFIED.);
#333=ORIENTED_EDGE('',*,*,#46,.F.);
#334=CARTESIAN_POINT('',(266.8700027427,157.8650686576,0.));
#335=CARTESIAN_POINT('',(221.7609880785,157.8650686551,0.));
#336=B_SPLINE_CURVE_WITH_KNOTS('',1,(#334,#335),.POLYLINE_FORM.,.F.,.U.,(2,2),(0.,1.),.UNSPECIFIED.);
#337=EDGE_CURVE('',#40,#313,#336,.T.);
#338=ORIENTED_EDGE('',*,*,#337,.T.);
#339=ORIENTED_EDGE('',*,*,#317,.F.);
#340=CARTESIAN_POINT('',(221.7609880785,157.8650686551,2.2));
#341=CARTESIAN_POINT('',(266.8700027427,157.8650686576,2.2));
#342=B_SPLINE_CURVE_WITH_KNOTS('',1,(#340,#341),.POLYLINE_FORM.,.F.,.U.,(2,2),(0.,1.),.UNSPECIFIED.);
#343=EDGE_CURVE('',#305,#42,#342,.T.);
#344=ORIENTED_EDGE('',*,*,#343,.T.);
#345=EDGE_LOOP('',(#333,#338,#339,#344));
#346=FACE_OUTER_BOUND('',#345,.T.);
#347=ADVANCED_FACE('',(#346),#332,.T.);
#348=CARTESIAN_POINT('',(272.66421671239,114.9163473433,2.2));
#349=CARTESIAN_POINT('',(215.96677408732,114.9163473433,2.2));
#350=CARTESIAN_POINT('',(272.66421671239,171.61378996836,2.2));
#351=CARTESIAN_POINT('',(215.96677408732,171.61378996836,2.2));
#352=B_SPLINE_SURFACE_WITH_KNOTS('',1,1,((#348,#349),(#350,#351)),.PLANE_SURF.,.F.,.F.,.U.,(2,2),(2,2),(0.,1.),(0.,1.),.UNSPECIFIED.);
#353=ORIENTED_EDGE('',*,*,#310,.F.);
#354=ORIENTED_EDGE('',*,*,#267,.F.);
#355=ORIENTED_EDGE('',*,*,#238,.F.);
#356=ORIENTED_EDGE('',*,*,#210,.F.);
#357=ORIENTED_EDGE('',*,*,#174,.F.);
#358=ORIENTED_EDGE('',*,*,#146,.F.);
#359=ORIENTED_EDGE('',*,*,#118,.F.);
#360=ORIENTED_EDGE('',*,*,#83,.F.);
#361=ORIENTED_EDGE('',*,*,#54,.F.);
#362=ORIENTED_EDGE('',*,*,#343,.F.);
#363=EDGE_LOOP('',(#353,#354,#355,#356,#357,#358,#359,#360,#361,#362));
#364=FACE_OUTER_BOUND('',#363,.T.);
#365=ADVANCED_FACE('',(#364),#352,.T.);
#366=CARTESIAN_POINT('',(591.08165817621,511.36718025432,0.));
#367=CARTESIAN_POINT('',(2.8131936818281,511.36718025432,0.));
#368=CARTESIAN_POINT('',(591.08165817621,-180.91895276284,0.));
#369=CARTESIAN_POINT('',(2.8131936818281,-180.91895276284,0.));
#370=B_SPLINE_SURFACE_WITH_KNOTS('',1,1,((#366,#367),(#368,#369)),.PLANE_SURF.,.F.,.F.,.U.,(2,2),(2,2),(0.,1.),(0.,1.),.UNSPECIFIED.);
#371=ORIENTED_EDGE('',*,*,#67,.F.);
#372=ORIENTED_EDGE('',*,*,#95,.F.);
#373=ORIENTED_EDGE('',*,*,#110,.F.);
#374=ORIENTED_EDGE('',*,*,#159,.F.);
#375=ORIENTED_EDGE('',*,*,#186,.F.);
#376=ORIENTED_EDGE('',*,*,#223,.F.);
#377=ORIENTED_EDGE('',*,*,#250,.F.);
#378=ORIENTED_EDGE('',*,*,#279,.F.);
#379=ORIENTED_EDGE('',*,*,#323,.F.);
#380=ORIENTED_EDGE('',*,*,#337,.F.);
#381=EDGE_LOOP('',(#371,#372,#373,#374,#375,#376,#377,#378,#379,#380));
#382=FACE_OUTER_BOUND('',#381,.T.);
#383=ADVANCED_FACE('',(#382),#370,.T.);
#384=CLOSED_SHELL('',(#71,#99,#127,#163,#191,#227,#255,#283,#327,#347,#365,#383));
#385=MANIFOLD_SOLID_BREP('S10',#384);
#386=ADVANCED_BREP_SHAPE_REPRESENTATION('none',(#385),#5);
#387=SHAPE_REPRESENTATION_RELATIONSHIP('none','generic',#18,#386);
#388=PRESENTATION_LAYER_ASSIGNMENT('0001','',(#385));
ENDSEC;
END-ISO-10303-21;
