ISO-10303-21;
HEADER;
FILE_DESCRIPTION(
  ('This file contains a STEP AP42 implementation'
    ,'as created by ZW3D STEP Interface translator.')
  ,'2;1'
  );
FILE_NAME(
  'DUV1.5-102-XX-00N.stp'
  ,'2410 8.10 8 2',
  (''),
  ('ZWCAD Software Co.'),
  'Version 1.0',
  'ZW3D to STEP translator',
  ''
  );
FILE_SCHEMA(('CONFIG_CONTROL_DESIGN'));
ENDSEC;

DATA;

/**File Base Unit**/
#1 = (LENGTH_UNIT()NAMED_UNIT(*)SI_UNIT(.MILLI.,.METRE.));
#2 = (NAMED_UNIT(*)PLANE_ANGLE_UNIT()SI_UNIT($,.RADIAN.));
#3 = (NAMED_UNIT(*)SI_UNIT($,.STERADIAN.)SOLID_ANGLE_UNIT());
#4 = UNCERTAINTY_MEASURE_WITH_UNIT(LENGTH_MEASURE(1.E-05),#1,'DISTANCE_ACCURACY_VALUE','Maximum Tolerance applied to model');
#5 = (GEOMETRIC_REPRESENTATION_CONTEXT(3)GLOBAL_UNCERTAINTY_ASSIGNED_CONTEXT((#4))GLOBAL_UNIT_ASSIGNED_CONTEXT((#1,#2,#3))REPRESENTATION_CONTEXT('STEP 203','TOP_LEVEL_ASSEMBLY_PART'));

/**product_definition_shape**/
#6=APPLICATION_CONTEXT('mechanical parts and assemblies' );
#7=DESIGN_CONTEXT('NONE',#6,'design');
#8=MECHANICAL_CONTEXT('NONE',#6,'mechanical');
#9=PRODUCT('0','Part','',(#8));
#10=PRODUCT_DEFINITION_FORMATION_WITH_SPECIFIED_SOURCE('ANY','',#9,.NOT_KNOWN.);
#11=PRODUCT_DEFINITION('UNKNOWN','',#10,#7);
#12=PRODUCT_DEFINITION_SHAPE('NONE','NONE',#11);
#13=PRODUCT_RELATED_PRODUCT_CATEGORY('detail','',(#9));
/**geometry information**/
#14=CARTESIAN_POINT('',(0.,0.,0.));
#15=DIRECTION('',(0.,0.,1.));
#16=DIRECTION('',(1.,0.,0.));
#17=AXIS2_PLACEMENT_3D('',#14,#15,#16);
#18=SHAPE_REPRESENTATION('none',(#17),#5);
#19=SHAPE_DEFINITION_REPRESENTATION(#12,#18);
#20=CARTESIAN_POINT('',(260.9449035872,145.66259046318,-7.0233490162316));
#21=CARTESIAN_POINT('',(260.9449035872,129.41589243072,-7.0233490162316));
#22=CARTESIAN_POINT('',(260.9449035872,145.66259046318,9.2233490162316));
#23=CARTESIAN_POINT('',(260.9449035872,129.41589243072,9.2233490162316));
#24=B_SPLINE_SURFACE_WITH_KNOTS('',1,1,((#20,#21),(#22,#23)),.PLANE_SURF.,.F.,.F.,.U.,(2,2),(2,2),(0.,1.),(0.,1.),.UNSPECIFIED.);
#25=CARTESIAN_POINT('',(260.9449035872,145.5877692154,0.));
#26=VERTEX_POINT('',#25);
#27=CARTESIAN_POINT('',(260.9449035872,145.5877692154,2.2));
#28=VERTEX_POINT('',#27);
#29=CARTESIAN_POINT('',(260.9449035872,145.5877692154,0.));
#30=CARTESIAN_POINT('',(260.9449035872,145.5877692154,2.2));
#31=B_SPLINE_CURVE_WITH_KNOTS('',1,(#29,#30),.POLYLINE_FORM.,.F.,.U.,(2,2),(0.,1.),.UNSPECIFIED.);
#32=EDGE_CURVE('',#26,#28,#31,.T.);
#33=ORIENTED_EDGE('',*,*,#32,.T.);
#34=CARTESIAN_POINT('',(260.9449035872,129.4907136785,2.2));
#35=VERTEX_POINT('',#34);
#36=CARTESIAN_POINT('',(260.9449035872,145.5877692154,2.2));
#37=CARTESIAN_POINT('',(260.9449035872,129.4907136785,2.2));
#38=B_SPLINE_CURVE_WITH_KNOTS('',1,(#36,#37),.POLYLINE_FORM.,.F.,.U.,(2,2),(0.,1.),.UNSPECIFIED.);
#39=EDGE_CURVE('',#28,#35,#38,.T.);
#40=ORIENTED_EDGE('',*,*,#39,.T.);
#41=CARTESIAN_POINT('',(260.9449035872,129.4907136785,0.));
#42=VERTEX_POINT('',#41);
#43=CARTESIAN_POINT('',(260.9449035872,129.4907136785,2.2));
#44=CARTESIAN_POINT('',(260.9449035872,129.4907136785,0.));
#45=B_SPLINE_CURVE_WITH_KNOTS('',1,(#43,#44),.POLYLINE_FORM.,.F.,.U.,(2,2),(0.,1.),.UNSPECIFIED.);
#46=EDGE_CURVE('',#35,#42,#45,.T.);
#47=ORIENTED_EDGE('',*,*,#46,.T.);
#48=CARTESIAN_POINT('',(260.9449035872,129.49071367849,0.));
#49=CARTESIAN_POINT('',(260.9449035872,145.5877692154,0.));
#50=B_SPLINE_CURVE_WITH_KNOTS('',1,(#48,#49),.POLYLINE_FORM.,.F.,.U.,(2,2),(0.,1.),.UNSPECIFIED.);
#51=EDGE_CURVE('',#42,#26,#50,.T.);
#52=ORIENTED_EDGE('',*,*,#51,.T.);
#53=EDGE_LOOP('',(#33,#40,#47,#52));
#54=FACE_OUTER_BOUND('',#53,.T.);
#55=ADVANCED_FACE('',(#54),#24,.T.);
#56=CARTESIAN_POINT('',(220.91390258879,128.4907136785,20.631000998413));
#57=CARTESIAN_POINT('',(259.97590458561,128.4907136785,20.631000998413));
#58=CARTESIAN_POINT('',(220.91390258879,128.4907136785,-18.431000998413));
#59=CARTESIAN_POINT('',(259.97590458561,128.4907136785,-18.431000998413));
#60=B_SPLINE_SURFACE_WITH_KNOTS('',1,1,((#56,#57),(#58,#59)),.PLANE_SURF.,.F.,.F.,.U.,(2,2),(2,2),(0.,1.),(0.,1.),.UNSPECIFIED.);
#61=CARTESIAN_POINT('',(220.9449035872,128.4907136785,2.2));
#62=VERTEX_POINT('',#61);
#63=CARTESIAN_POINT('',(220.9449035872,128.4907136785,0.));
#64=VERTEX_POINT('',#63);
#65=CARTESIAN_POINT('',(220.9449035872,128.4907136785,2.2));
#66=CARTESIAN_POINT('',(220.9449035872,128.4907136785,0.));
#67=B_SPLINE_CURVE_WITH_KNOTS('',1,(#65,#66),.POLYLINE_FORM.,.F.,.U.,(2,2),(0.,1.),.UNSPECIFIED.);
#68=EDGE_CURVE('',#62,#64,#67,.T.);
#69=ORIENTED_EDGE('',*,*,#68,.T.);
#70=CARTESIAN_POINT('',(259.9449035872,128.4907136785,0.));
#71=VERTEX_POINT('',#70);
#72=CARTESIAN_POINT('',(220.94490358712,128.4907136785,0.));
#73=CARTESIAN_POINT('',(259.94490358721,128.4907136785,0.));
#74=B_SPLINE_CURVE_WITH_KNOTS('',1,(#72,#73),.POLYLINE_FORM.,.F.,.U.,(2,2),(0.,1.),.UNSPECIFIED.);
#75=EDGE_CURVE('',#64,#71,#74,.T.);
#76=ORIENTED_EDGE('',*,*,#75,.T.);
#77=CARTESIAN_POINT('',(259.9449035872,128.4907136785,2.2));
#78=VERTEX_POINT('',#77);
#79=CARTESIAN_POINT('',(259.9449035872,128.4907136785,0.));
#80=CARTESIAN_POINT('',(259.9449035872,128.4907136785,2.2));
#81=B_SPLINE_CURVE_WITH_KNOTS('',1,(#79,#80),.POLYLINE_FORM.,.F.,.U.,(2,2),(0.,1.),.UNSPECIFIED.);
#82=EDGE_CURVE('',#71,#78,#81,.T.);
#83=ORIENTED_EDGE('',*,*,#82,.T.);
#84=CARTESIAN_POINT('',(259.9449035872,128.4907136785,2.2));
#85=CARTESIAN_POINT('',(220.9449035872,128.4907136785,2.2));
#86=B_SPLINE_CURVE_WITH_KNOTS('',1,(#84,#85),.POLYLINE_FORM.,.F.,.U.,(2,2),(0.,1.),.UNSPECIFIED.);
#87=EDGE_CURVE('',#78,#62,#86,.T.);
#88=ORIENTED_EDGE('',*,*,#87,.T.);
#89=EDGE_LOOP('',(#69,#76,#83,#88));
#90=FACE_OUTER_BOUND('',#89,.T.);
#91=ADVANCED_FACE('',(#90),#60,.T.);
#92=CARTESIAN_POINT('',(260.9449035872,129.49071367848,0.));
#93=CARTESIAN_POINT('',(260.94490358719,129.07650011612,0.));
#94=CARTESIAN_POINT('',(260.65201036839,128.78360689731,0.));
#95=CARTESIAN_POINT('',(260.35911714958,128.49071367851,0.));
#96=CARTESIAN_POINT('',(259.94490358722,128.4907136785,0.));
#97=CARTESIAN_POINT('',(260.9449035872,129.49071367848,2.2));
#98=CARTESIAN_POINT('',(260.94490358719,129.07650011612,2.2));
#99=CARTESIAN_POINT('',(260.65201036839,128.78360689731,2.2));
#100=CARTESIAN_POINT('',(260.35911714958,128.49071367851,2.2));
#101=CARTESIAN_POINT('',(259.94490358722,128.4907136785,2.2));
#102=(BOUNDED_SURFACE()B_SPLINE_SURFACE(1,2,((#92,#93,#94,#95,#96),(#97,#98,#99,#100,#101)),.CYLINDRICAL_SURF.,.F.,.F.,.U.)B_SPLINE_SURFACE_WITH_KNOTS((2,2),(3,2,3),(0.,2.2),(0.,0.78539816338199,1.5707963267639),.UNSPECIFIED.)GEOMETRIC_REPRESENTATION_ITEM()RATIONAL_B_SPLINE_SURFACE(((0.85355339059327,0.85355339059616,1.,0.85355339059616,0.85355339059327),(0.85355339059327,0.85355339059616,1.,0.85355339059616,0.85355339059327)))REPRESENTATION_ITEM('')SURFACE());
#103=ORIENTED_EDGE('',*,*,#46,.F.);
#104=CARTESIAN_POINT('',(260.9449035872,129.4907136785,2.2));
#105=CARTESIAN_POINT('',(260.9449035872,128.4907136785,2.2));
#106=CARTESIAN_POINT('',(259.9449035872,128.4907136785,2.2));
#107=(BOUNDED_CURVE()B_SPLINE_CURVE(2,(#104,#105,#106),.CIRCULAR_ARC.,.F.,.U.)B_SPLINE_CURVE_WITH_KNOTS((3,3),(0.,1.),.UNSPECIFIED.)CURVE()GEOMETRIC_REPRESENTATION_ITEM()RATIONAL_B_SPLINE_CURVE((1.,0.70710678118655,1.))REPRESENTATION_ITEM(''));
#108=EDGE_CURVE('',#35,#78,#107,.T.);
#109=ORIENTED_EDGE('',*,*,#108,.T.);
#110=ORIENTED_EDGE('',*,*,#82,.F.);
#111=CARTESIAN_POINT('',(259.94490358722,128.4907136785,0.));
#112=CARTESIAN_POINT('',(260.94490358718,128.49071367852,0.));
#113=CARTESIAN_POINT('',(260.9449035872,129.49071367848,0.));
#114=(BOUNDED_CURVE()B_SPLINE_CURVE(2,(#111,#112,#113),.CIRCULAR_ARC.,.F.,.U.)B_SPLINE_CURVE_WITH_KNOTS((3,3),(0.,1.),.UNSPECIFIED.)CURVE()GEOMETRIC_REPRESENTATION_ITEM()RATIONAL_B_SPLINE_CURVE((1.,0.70710678119857,1.))REPRESENTATION_ITEM(''));
#115=EDGE_CURVE('',#71,#42,#114,.T.);
#116=ORIENTED_EDGE('',*,*,#115,.T.);
#117=EDGE_LOOP('',(#103,#109,#110,#116));
#118=FACE_OUTER_BOUND('',#117,.T.);
#119=ADVANCED_FACE('',(#118),#102,.T.);
#120=CARTESIAN_POINT('',(259.66316195161,152.8395402792,-2.6642410467959));
#121=CARTESIAN_POINT('',(260.97350173378,145.42596811129,-2.6642410467959));
#122=CARTESIAN_POINT('',(259.66316195161,152.8395402792,4.8642410467959));
#123=CARTESIAN_POINT('',(260.97350173378,145.42596811129,4.8642410467959));
#124=B_SPLINE_SURFACE_WITH_KNOTS('',1,1,((#120,#121),(#122,#123)),.PLANE_SURF.,.F.,.F.,.U.,(2,2),(2,2),(0.,1.),(0.,1.),.UNSPECIFIED.);
#125=CARTESIAN_POINT('',(259.6917600982,152.677739175,0.));
#126=VERTEX_POINT('',#125);
#127=CARTESIAN_POINT('',(259.6917600982,152.6777391751,2.2));
#128=VERTEX_POINT('',#127);
#129=CARTESIAN_POINT('',(259.6917600982,152.677739175,0.));
#130=CARTESIAN_POINT('',(259.6917600982,152.6777391751,2.2));
#131=B_SPLINE_CURVE_WITH_KNOTS('',1,(#129,#130),.POLYLINE_FORM.,.F.,.U.,(2,2),(0.,1.),.UNSPECIFIED.);
#132=EDGE_CURVE('',#126,#128,#131,.T.);
#133=ORIENTED_EDGE('',*,*,#132,.T.);
#134=CARTESIAN_POINT('',(259.6917600982,152.6777391751,2.2));
#135=CARTESIAN_POINT('',(260.9449035872,145.5877692154,2.2));
#136=B_SPLINE_CURVE_WITH_KNOTS('',1,(#134,#135),.POLYLINE_FORM.,.F.,.U.,(2,2),(0.,1.),.UNSPECIFIED.);
#137=EDGE_CURVE('',#128,#28,#136,.T.);
#138=ORIENTED_EDGE('',*,*,#137,.T.);
#139=ORIENTED_EDGE('',*,*,#32,.F.);
#140=CARTESIAN_POINT('',(260.9449035872,145.5877692154,0.));
#141=CARTESIAN_POINT('',(259.69176009848,152.67773917341,0.));
#142=B_SPLINE_CURVE_WITH_KNOTS('',1,(#140,#141),.POLYLINE_FORM.,.F.,.U.,(2,2),(0.65831926826998,0.66166968520186),.UNSPECIFIED.);
#143=EDGE_CURVE('',#26,#126,#142,.T.);
#144=ORIENTED_EDGE('',*,*,#143,.T.);
#145=EDGE_LOOP('',(#133,#138,#139,#144));
#146=FACE_OUTER_BOUND('',#145,.T.);
#147=ADVANCED_FACE('',(#146),#124,.T.);
#148=CARTESIAN_POINT('',(259.22852165658,153.0907136785,21.883618069377));
#149=CARTESIAN_POINT('',(217.66128551782,153.0907136785,21.883618069377));
#150=CARTESIAN_POINT('',(259.22852165658,153.0907136785,-19.683618069377));
#151=CARTESIAN_POINT('',(217.66128551782,153.0907136785,-19.683618069377));
#152=B_SPLINE_SURFACE_WITH_KNOTS('',1,1,((#148,#149),(#150,#151)),.PLANE_SURF.,.F.,.F.,.U.,(2,2),(2,2),(0.,1.),(0.,1.),.UNSPECIFIED.);
#153=CARTESIAN_POINT('',(259.1993917778,153.0907136785,2.2));
#154=VERTEX_POINT('',#153);
#155=CARTESIAN_POINT('',(259.1993917778,153.0907136785,0.));
#156=VERTEX_POINT('',#155);
#157=CARTESIAN_POINT('',(259.1993917778,153.0907136785,2.2));
#158=CARTESIAN_POINT('',(259.1993917778,153.0907136785,0.));
#159=B_SPLINE_CURVE_WITH_KNOTS('',1,(#157,#158),.POLYLINE_FORM.,.F.,.U.,(2,2),(0.,1.),.UNSPECIFIED.);
#160=EDGE_CURVE('',#154,#156,#159,.T.);
#161=ORIENTED_EDGE('',*,*,#160,.T.);
#162=CARTESIAN_POINT('',(217.6904153966,153.0907136785,0.));
#163=VERTEX_POINT('',#162);
#164=CARTESIAN_POINT('',(259.19939173637,153.0907136785,0.));
#165=CARTESIAN_POINT('',(217.69041540039,153.0907136785,0.));
#166=B_SPLINE_CURVE_WITH_KNOTS('',1,(#164,#165),.POLYLINE_FORM.,.F.,.U.,(2,2),(0.,1.),.UNSPECIFIED.);
#167=EDGE_CURVE('',#156,#163,#166,.T.);
#168=ORIENTED_EDGE('',*,*,#167,.T.);
#169=CARTESIAN_POINT('',(217.6904153966,153.0907136785,2.2));
#170=VERTEX_POINT('',#169);
#171=CARTESIAN_POINT('',(217.6904153966,153.0907136785,0.));
#172=CARTESIAN_POINT('',(217.6904153966,153.0907136785,2.2));
#173=B_SPLINE_CURVE_WITH_KNOTS('',1,(#171,#172),.POLYLINE_FORM.,.F.,.U.,(2,2),(0.,1.),.UNSPECIFIED.);
#174=EDGE_CURVE('',#163,#170,#173,.T.);
#175=ORIENTED_EDGE('',*,*,#174,.T.);
#176=CARTESIAN_POINT('',(217.6904153966,153.0907136785,2.2));
#177=CARTESIAN_POINT('',(259.1993917778,153.0907136785,2.2));
#178=B_SPLINE_CURVE_WITH_KNOTS('',1,(#176,#177),.POLYLINE_FORM.,.F.,.U.,(2,2),(0.,1.),.UNSPECIFIED.);
#179=EDGE_CURVE('',#170,#154,#178,.T.);
#180=ORIENTED_EDGE('',*,*,#179,.T.);
#181=EDGE_LOOP('',(#161,#168,#175,#180));
#182=FACE_OUTER_BOUND('',#181,.T.);
#183=ADVANCED_FACE('',(#182),#152,.T.);
#184=CARTESIAN_POINT('',(439.81983309089,-44.170123258913,2.2));
#185=CARTESIAN_POINT('',(45.065764742433,-44.170123258913,2.2));
#186=CARTESIAN_POINT('',(439.81983309089,372.22795941208,2.2));
#187=CARTESIAN_POINT('',(45.065764742433,372.22795941208,2.2));
#188=B_SPLINE_SURFACE_WITH_KNOTS('',1,1,((#184,#185),(#186,#187)),.PLANE_SURF.,.F.,.F.,.U.,(2,2),(2,2),(0.,1.),(0.,1.),.UNSPECIFIED.);
#189=CARTESIAN_POINT('',(217.1980470762,152.677739175,2.2));
#190=VERTEX_POINT('',#189);
#191=CARTESIAN_POINT('',(217.6904153966,153.0907136785,2.2));
#192=CARTESIAN_POINT('',(217.27103981295,153.0907136785,2.2));
#193=CARTESIAN_POINT('',(217.19804707617,152.677739175,2.2));
#194=(BOUNDED_CURVE()B_SPLINE_CURVE(2,(#191,#192,#193),.CIRCULAR_ARC.,.F.,.U.)B_SPLINE_CURVE_WITH_KNOTS((3,3),(0.,1.),.UNSPECIFIED.)CURVE()GEOMETRIC_REPRESENTATION_ITEM()RATIONAL_B_SPLINE_CURVE((1.,0.76617589136202,1.))REPRESENTATION_ITEM(''));
#195=EDGE_CURVE('',#170,#190,#194,.T.);
#196=ORIENTED_EDGE('',*,*,#195,.T.);
#197=CARTESIAN_POINT('',(215.9449035872,145.5877692154,2.2));
#198=VERTEX_POINT('',#197);
#199=CARTESIAN_POINT('',(217.1980470762,152.677739175,2.2));
#200=CARTESIAN_POINT('',(215.9449035872,145.5877692154,2.2));
#201=B_SPLINE_CURVE_WITH_KNOTS('',1,(#199,#200),.POLYLINE_FORM.,.F.,.U.,(2,2),(0.,1.),.UNSPECIFIED.);
#202=EDGE_CURVE('',#190,#198,#201,.T.);
#203=ORIENTED_EDGE('',*,*,#202,.T.);
#204=CARTESIAN_POINT('',(215.9449035872,133.4907136785,2.2));
#205=VERTEX_POINT('',#204);
#206=CARTESIAN_POINT('',(215.9449035872,145.5877692154,2.2));
#207=CARTESIAN_POINT('',(215.9449035872,133.4907136785,2.2));
#208=B_SPLINE_CURVE_WITH_KNOTS('',1,(#206,#207),.POLYLINE_FORM.,.F.,.U.,(2,2),(0.,1.),.UNSPECIFIED.);
#209=EDGE_CURVE('',#198,#205,#208,.T.);
#210=ORIENTED_EDGE('',*,*,#209,.T.);
#211=CARTESIAN_POINT('',(215.9449035872,133.4907136785,2.2));
#212=CARTESIAN_POINT('',(215.9449035872,128.4907136785,2.2));
#213=CARTESIAN_POINT('',(220.9449035872,128.4907136785,2.2));
#214=(BOUNDED_CURVE()B_SPLINE_CURVE(2,(#211,#212,#213),.CIRCULAR_ARC.,.F.,.U.)B_SPLINE_CURVE_WITH_KNOTS((3,3),(0.,1.),.UNSPECIFIED.)CURVE()GEOMETRIC_REPRESENTATION_ITEM()RATIONAL_B_SPLINE_CURVE((1.,0.70710678118655,1.))REPRESENTATION_ITEM(''));
#215=EDGE_CURVE('',#205,#62,#214,.T.);
#216=ORIENTED_EDGE('',*,*,#215,.T.);
#217=ORIENTED_EDGE('',*,*,#87,.F.);
#218=ORIENTED_EDGE('',*,*,#108,.F.);
#219=ORIENTED_EDGE('',*,*,#39,.F.);
#220=ORIENTED_EDGE('',*,*,#137,.F.);
#221=CARTESIAN_POINT('',(259.69176009821,152.6777391751,2.2));
#222=CARTESIAN_POINT('',(259.61876736136,153.0907136785,2.2));
#223=CARTESIAN_POINT('',(259.1993917778,153.0907136785,2.2));
#224=(BOUNDED_CURVE()B_SPLINE_CURVE(2,(#221,#222,#223),.CIRCULAR_ARC.,.F.,.U.)B_SPLINE_CURVE_WITH_KNOTS((3,3),(0.,1.),.UNSPECIFIED.)CURVE()GEOMETRIC_REPRESENTATION_ITEM()RATIONAL_B_SPLINE_CURVE((1.,0.76617589142531,1.))REPRESENTATION_ITEM(''));
#225=EDGE_CURVE('',#128,#154,#224,.T.);
#226=ORIENTED_EDGE('',*,*,#225,.T.);
#227=ORIENTED_EDGE('',*,*,#179,.F.);
#228=EDGE_LOOP('',(#196,#203,#210,#216,#217,#218,#219,#220,#226,#227));
#229=FACE_OUTER_BOUND('',#228,.T.);
#230=ADVANCED_FACE('',(#229),#188,.T.);
#231=CARTESIAN_POINT('',(215.91630544064,145.4259681113,-2.6642410468442));
#232=CARTESIAN_POINT('',(217.22664522283,152.8395402793,-2.6642410468442));
#233=CARTESIAN_POINT('',(215.91630544064,145.4259681113,4.8642410468442));
#234=CARTESIAN_POINT('',(217.22664522283,152.8395402793,4.8642410468442));
#235=B_SPLINE_SURFACE_WITH_KNOTS('',1,1,((#231,#232),(#233,#234)),.PLANE_SURF.,.F.,.F.,.U.,(2,2),(2,2),(0.,1.),(0.,1.),.UNSPECIFIED.);
#236=CARTESIAN_POINT('',(215.9449035872,145.5877692154,0.));
#237=VERTEX_POINT('',#236);
#238=CARTESIAN_POINT('',(215.9449035872,145.5877692154,0.));
#239=CARTESIAN_POINT('',(215.9449035872,145.5877692154,2.2));
#240=B_SPLINE_CURVE_WITH_KNOTS('',1,(#238,#239),.POLYLINE_FORM.,.F.,.U.,(2,2),(0.,1.),.UNSPECIFIED.);
#241=EDGE_CURVE('',#237,#198,#240,.T.);
#242=ORIENTED_EDGE('',*,*,#241,.T.);
#243=ORIENTED_EDGE('',*,*,#202,.F.);
#244=CARTESIAN_POINT('',(217.1980470762,152.6777391752,0.));
#245=VERTEX_POINT('',#244);
#246=CARTESIAN_POINT('',(217.1980470762,152.677739175,2.2));
#247=CARTESIAN_POINT('',(217.1980470762,152.6777391752,0.));
#248=B_SPLINE_CURVE_WITH_KNOTS('',1,(#246,#247),.POLYLINE_FORM.,.F.,.U.,(2,2),(0.,1.),.UNSPECIFIED.);
#249=EDGE_CURVE('',#190,#245,#248,.T.);
#250=ORIENTED_EDGE('',*,*,#249,.T.);
#251=CARTESIAN_POINT('',(217.19804707203,152.67773915131,0.));
#252=CARTESIAN_POINT('',(215.9449035872,145.58776921534,0.));
#253=B_SPLINE_CURVE_WITH_KNOTS('',1,(#251,#252),.POLYLINE_FORM.,.F.,.U.,(2,2),(0.,1.),.UNSPECIFIED.);
#254=EDGE_CURVE('',#245,#237,#253,.T.);
#255=ORIENTED_EDGE('',*,*,#254,.T.);
#256=EDGE_LOOP('',(#242,#243,#250,#255));
#257=FACE_OUTER_BOUND('',#256,.T.);
#258=ADVANCED_FACE('',(#257),#235,.T.);
#259=CARTESIAN_POINT('',(259.19041753627,153.09071367695,0.));
#260=CARTESIAN_POINT('',(259.19490461388,153.09071367773,0.));
#261=CARTESIAN_POINT('',(259.19939169148,153.0907136785,0.));
#262=CARTESIAN_POINT('',(259.38131895562,153.09071370991,0.));
#263=CARTESIAN_POINT('',(259.5207072394,152.9738016242,0.));
#264=CARTESIAN_POINT('',(259.66009548918,152.856889567,0.));
#265=CARTESIAN_POINT('',(259.6917600996,152.67773916722,0.));
#266=CARTESIAN_POINT('',(259.69254108767,152.67332053318,0.));
#267=CARTESIAN_POINT('',(259.69332207574,152.66890189915,0.));
#268=CARTESIAN_POINT('',(259.19041753627,153.09071367695,2.2));
#269=CARTESIAN_POINT('',(259.19490461388,153.09071367773,2.2));
#270=CARTESIAN_POINT('',(259.19939169148,153.0907136785,2.2));
#271=CARTESIAN_POINT('',(259.38131895562,153.09071370991,2.2));
#272=CARTESIAN_POINT('',(259.5207072394,152.9738016242,2.2));
#273=CARTESIAN_POINT('',(259.66009548918,152.856889567,2.2));
#274=CARTESIAN_POINT('',(259.6917600996,152.67773916722,2.2));
#275=CARTESIAN_POINT('',(259.69254108767,152.67332053318,2.2));
#276=CARTESIAN_POINT('',(259.69332207574,152.66890189915,2.2));
#277=(BOUNDED_SURFACE()B_SPLINE_SURFACE(1,2,((#259,#260,#261,#262,#263,#264,#265,#266,#267),(#268,#269,#270,#271,#272,#273,#274,#275,#276)),.SURF_OF_LINEAR_EXTRUSION.,.F.,.F.,.U.)B_SPLINE_SURFACE_WITH_KNOTS((2,2),(3,2,2,2,3),(0.,4.4),(-0.0085243274574109,0.,0.35120885939499,0.70241764435351,0.7109420573308),.UNSPECIFIED.)GEOMETRIC_REPRESENTATION_ITEM()RATIONAL_B_SPLINE_SURFACE(((0.85518813956671,0.85518813956671,0.85518813956671,0.8690260582492,1.,0.86902608600829,0.85518814543243,0.85518814543243,0.85518814543243),(0.85518813956671,0.85518813956671,0.85518813956671,0.8690260582492,1.,0.86902608600829,0.85518814543243,0.85518814543243,0.85518814543243)))REPRESENTATION_ITEM('')SURFACE());
#278=ORIENTED_EDGE('',*,*,#160,.F.);
#279=ORIENTED_EDGE('',*,*,#225,.F.);
#280=ORIENTED_EDGE('',*,*,#132,.F.);
#281=CARTESIAN_POINT('',(259.69176009822,152.67773917503,0.));
#282=CARTESIAN_POINT('',(259.66009548574,152.85688956989,0.));
#283=CARTESIAN_POINT('',(259.5207072394,152.9738016242,0.));
#284=CARTESIAN_POINT('',(259.38131899305,153.09071367852,0.));
#285=CARTESIAN_POINT('',(259.19939177775,153.0907136785,0.));
#286=(BOUNDED_CURVE()B_SPLINE_CURVE(2,(#281,#282,#283,#284,#285),.CIRCULAR_ARC.,.F.,.U.)B_SPLINE_CURVE_WITH_KNOTS((3,2,3),(8.1949537432625E-08,0.35120885937315,0.7024176368186),.UNSPECIFIED.)CURVE()GEOMETRIC_REPRESENTATION_ITEM()RATIONAL_B_SPLINE_CURVE((0.85518814602619,0.86902608881823,1.,0.86902608881009,0.85518814602448))REPRESENTATION_ITEM(''));
#287=EDGE_CURVE('',#126,#156,#286,.T.);
#288=ORIENTED_EDGE('',*,*,#287,.T.);
#289=EDGE_LOOP('',(#278,#279,#280,#288));
#290=FACE_OUTER_BOUND('',#289,.T.);
#291=ADVANCED_FACE('',(#290),#277,.T.);
#292=CARTESIAN_POINT('',(217.19648510205,152.66890191028,0.));
#293=CARTESIAN_POINT('',(217.19726608162,152.67332050024,0.));
#294=CARTESIAN_POINT('',(217.19804706119,152.6777390902,0.));
#295=CARTESIAN_POINT('',(217.22971165129,152.85688953855,0.));
#296=CARTESIAN_POINT('',(217.36909993502,152.97380162421,0.));
#297=CARTESIAN_POINT('',(217.50848818477,153.09071368138,0.));
#298=CARTESIAN_POINT('',(217.6904154045,153.0907136785,0.));
#299=CARTESIAN_POINT('',(217.69490252721,153.09071367843,0.));
#300=CARTESIAN_POINT('',(217.69938964993,153.09071367836,0.));
#301=CARTESIAN_POINT('',(217.19648510205,152.66890191028,2.2));
#302=CARTESIAN_POINT('',(217.19726608162,152.67332050024,2.2));
#303=CARTESIAN_POINT('',(217.19804706119,152.6777390902,2.2));
#304=CARTESIAN_POINT('',(217.22971165129,152.85688953855,2.2));
#305=CARTESIAN_POINT('',(217.36909993502,152.97380162421,2.2));
#306=CARTESIAN_POINT('',(217.50848818477,153.09071368138,2.2));
#307=CARTESIAN_POINT('',(217.6904154045,153.0907136785,2.2));
#308=CARTESIAN_POINT('',(217.69490252721,153.09071367843,2.2));
#309=CARTESIAN_POINT('',(217.69938964993,153.09071367836,2.2));
#310=(BOUNDED_SURFACE()B_SPLINE_SURFACE(1,2,((#292,#293,#294,#295,#296,#297,#298,#299,#300),(#301,#302,#303,#304,#305,#306,#307,#308,#309)),.SURF_OF_LINEAR_EXTRUSION.,.F.,.F.,.U.)B_SPLINE_SURFACE_WITH_KNOTS((2,2),(3,2,2,2,3),(0.,4.4),(-0.0085243276525612,0.,0.35120885928093,0.70241764416646,0.71094205738077),.UNSPECIFIED.)GEOMETRIC_REPRESENTATION_ITEM()RATIONAL_B_SPLINE_SURFACE(((0.8551881395757,0.8551881395757,0.8551881395757,0.86902605829174,1.,0.86902608603551,0.85518814543818,0.85518814543818,0.85518814543818),(0.8551881395757,0.8551881395757,0.8551881395757,0.86902605829174,1.,0.86902608603551,0.85518814543818,0.85518814543818,0.85518814543818)))REPRESENTATION_ITEM('')SURFACE());
#311=ORIENTED_EDGE('',*,*,#249,.F.);
#312=ORIENTED_EDGE('',*,*,#195,.F.);
#313=ORIENTED_EDGE('',*,*,#174,.F.);
#314=CARTESIAN_POINT('',(217.69041539671,153.0907136785,0.));
#315=CARTESIAN_POINT('',(217.50848818139,153.09071367854,0.));
#316=CARTESIAN_POINT('',(217.36909993502,152.97380162421,0.));
#317=CARTESIAN_POINT('',(217.22971168874,152.85688956996,0.));
#318=CARTESIAN_POINT('',(217.19804707621,152.67773917521,0.));
#319=(BOUNDED_CURVE()B_SPLINE_CURVE(2,(#314,#315,#316,#317,#318),.CIRCULAR_ARC.,.F.,.U.)B_SPLINE_CURVE_WITH_KNOTS((3,2,3),(8.1995980857429E-08,0.3512088594801,0.70241763676505),.UNSPECIFIED.)CURVE()GEOMETRIC_REPRESENTATION_ITEM()RATIONAL_B_SPLINE_CURVE((0.85518814602142,0.86902608879567,1.,0.86902608886995,0.85518814603713))REPRESENTATION_ITEM(''));
#320=EDGE_CURVE('',#163,#245,#319,.T.);
#321=ORIENTED_EDGE('',*,*,#320,.T.);
#322=EDGE_LOOP('',(#311,#312,#313,#321));
#323=FACE_OUTER_BOUND('',#322,.T.);
#324=ADVANCED_FACE('',(#323),#310,.T.);
#325=CARTESIAN_POINT('',(215.9449035872,133.39150298751,-5.0477384594427));
#326=CARTESIAN_POINT('',(215.9449035872,145.68697990639,-5.0477384594427));
#327=CARTESIAN_POINT('',(215.9449035872,133.39150298751,7.2477384594427));
#328=CARTESIAN_POINT('',(215.9449035872,145.68697990639,7.2477384594427));
#329=B_SPLINE_SURFACE_WITH_KNOTS('',1,1,((#325,#326),(#327,#328)),.PLANE_SURF.,.F.,.F.,.U.,(2,2),(2,2),(0.,1.),(0.,1.),.UNSPECIFIED.);
#330=ORIENTED_EDGE('',*,*,#241,.F.);
#331=CARTESIAN_POINT('',(215.9449035872,133.4907136785,0.));
#332=VERTEX_POINT('',#331);
#333=CARTESIAN_POINT('',(215.9449035872,145.58776921534,0.));
#334=CARTESIAN_POINT('',(215.9449035872,133.49071367845,0.));
#335=B_SPLINE_CURVE_WITH_KNOTS('',1,(#333,#334),.POLYLINE_FORM.,.F.,.U.,(2,2),(0.,1.),.UNSPECIFIED.);
#336=EDGE_CURVE('',#237,#332,#335,.T.);
#337=ORIENTED_EDGE('',*,*,#336,.T.);
#338=CARTESIAN_POINT('',(215.9449035872,133.4907136785,0.));
#339=CARTESIAN_POINT('',(215.9449035872,133.4907136785,2.2));
#340=B_SPLINE_CURVE_WITH_KNOTS('',1,(#338,#339),.POLYLINE_FORM.,.F.,.U.,(2,2),(0.,1.),.UNSPECIFIED.);
#341=EDGE_CURVE('',#332,#205,#340,.T.);
#342=ORIENTED_EDGE('',*,*,#341,.T.);
#343=ORIENTED_EDGE('',*,*,#209,.F.);
#344=EDGE_LOOP('',(#330,#337,#342,#343));
#345=FACE_OUTER_BOUND('',#344,.T.);
#346=ADVANCED_FACE('',(#345),#329,.T.);
#347=CARTESIAN_POINT('',(220.94490358704,128.4907136785,0.));
#348=CARTESIAN_POINT('',(218.87383577527,128.49071367857,0.));
#349=CARTESIAN_POINT('',(217.40936968127,129.95517977257,0.));
#350=CARTESIAN_POINT('',(215.94490358723,131.4196458666,0.));
#351=CARTESIAN_POINT('',(215.9449035872,133.49071367842,0.));
#352=CARTESIAN_POINT('',(220.94490358704,128.4907136785,2.2));
#353=CARTESIAN_POINT('',(218.87383577527,128.49071367857,2.2));
#354=CARTESIAN_POINT('',(217.40936968127,129.95517977257,2.2));
#355=CARTESIAN_POINT('',(215.94490358723,131.4196458666,2.2));
#356=CARTESIAN_POINT('',(215.9449035872,133.49071367842,2.2));
#357=(BOUNDED_SURFACE()B_SPLINE_SURFACE(1,2,((#347,#348,#349,#350,#351),(#352,#353,#354,#355,#356)),.CYLINDRICAL_SURF.,.F.,.F.,.U.)B_SPLINE_SURFACE_WITH_KNOTS((2,2),(3,2,3),(0.,0.44),(0.,3.9269908168323,7.8539816337421),.UNSPECIFIED.)GEOMETRIC_REPRESENTATION_ITEM()RATIONAL_B_SPLINE_SURFACE(((0.85355339059327,0.85355339059905,1.,0.85355339059616,0.85355339059327),(0.85355339059327,0.85355339059905,1.,0.85355339059616,0.85355339059327)))REPRESENTATION_ITEM('')SURFACE());
#358=ORIENTED_EDGE('',*,*,#341,.F.);
#359=CARTESIAN_POINT('',(215.9449035872,133.49071367842,0.));
#360=CARTESIAN_POINT('',(215.94490358723,131.4196458666,0.));
#361=CARTESIAN_POINT('',(217.40936968127,129.95517977257,0.));
#362=CARTESIAN_POINT('',(218.87383577527,128.49071367857,0.));
#363=CARTESIAN_POINT('',(220.94490358704,128.4907136785,0.));
#364=(BOUNDED_CURVE()B_SPLINE_CURVE(2,(#359,#360,#361,#362,#363),.CIRCULAR_ARC.,.F.,.U.)B_SPLINE_CURVE_WITH_KNOTS((3,2,3),(0.,3.9269908169098,7.8539816337421),.UNSPECIFIED.)CURVE()GEOMETRIC_REPRESENTATION_ITEM()RATIONAL_B_SPLINE_CURVE((0.85355339059327,0.85355339059616,1.,0.85355339059905,0.85355339059327))REPRESENTATION_ITEM(''));
#365=EDGE_CURVE('',#332,#64,#364,.T.);
#366=ORIENTED_EDGE('',*,*,#365,.T.);
#367=ORIENTED_EDGE('',*,*,#68,.F.);
#368=ORIENTED_EDGE('',*,*,#215,.F.);
#369=EDGE_LOOP('',(#358,#366,#367,#368));
#370=FACE_OUTER_BOUND('',#369,.T.);
#371=ADVANCED_FACE('',(#370),#357,.T.);
#372=CARTESIAN_POINT('',(5393.9965369601,405.20226995771,0.));
#373=CARTESIAN_POINT('',(-4935.7534337666,405.20226995771,0.));
#374=CARTESIAN_POINT('',(5393.9965369601,-5013.5387413377,0.));
#375=CARTESIAN_POINT('',(-4935.7534337666,-5013.5387413377,0.));
#376=B_SPLINE_SURFACE_WITH_KNOTS('',1,1,((#372,#373),(#374,#375)),.PLANE_SURF.,.F.,.F.,.U.,(2,2),(2,2),(0.,1.),(0.,1.),.UNSPECIFIED.);
#377=ORIENTED_EDGE('',*,*,#287,.F.);
#378=ORIENTED_EDGE('',*,*,#143,.F.);
#379=ORIENTED_EDGE('',*,*,#51,.F.);
#380=ORIENTED_EDGE('',*,*,#115,.F.);
#381=ORIENTED_EDGE('',*,*,#75,.F.);
#382=ORIENTED_EDGE('',*,*,#365,.F.);
#383=ORIENTED_EDGE('',*,*,#336,.F.);
#384=ORIENTED_EDGE('',*,*,#254,.F.);
#385=ORIENTED_EDGE('',*,*,#320,.F.);
#386=ORIENTED_EDGE('',*,*,#167,.F.);
#387=EDGE_LOOP('',(#377,#378,#379,#380,#381,#382,#383,#384,#385,#386));
#388=FACE_OUTER_BOUND('',#387,.T.);
#389=ADVANCED_FACE('',(#388),#376,.T.);
#390=CLOSED_SHELL('',(#55,#91,#119,#147,#183,#230,#258,#291,#324,#346,#371,#389));
#391=MANIFOLD_SOLID_BREP('S5',#390);
#392=ADVANCED_BREP_SHAPE_REPRESENTATION('none',(#391),#5);
#393=SHAPE_REPRESENTATION_RELATIONSHIP('none','generic',#18,#392);
#394=PRESENTATION_LAYER_ASSIGNMENT('0001','',(#391));
ENDSEC;
END-ISO-10303-21;
